999
dxflib 2.2.0.0
  0
SECTION
  2
HEADER
  9
$ACADVER
  1
AC1015
  9
$HANDSEED
  5
FFFF
  9
$OBSCOLOR
 70
257
  9
$DIMLIM
 70
0
  9
$DIMLUNIT
 70
2
  9
$DIMTIX
 70
0
  9
$AUNITS
 70
0
  9
$QTEXTMODE
 70
0
  9
$USERR1
 40
0.0
  9
$DIMALTU
 70
2
  9
$USERR2
 40
0.0
  9
$UCSORGBOTTOM
 10
0.0
 20
0.0
 30
0.0
  9
$USERR3
 40
0.0
  9
$USERR4
 40
0.0
  9
$USERR5
 40
0.0
  9
$LIMMAX
 10
11.69291338582677
 20
8.2677165354330704
  9
$PELEVATION
 40
0.0
  9
$DIMALTZ
 70
0
  9
$DIMADEC
 70
2
  9
$JOINSTYLE
280
0
  9
$TILEMODE
 70
1
  9
$DIMATFIT
 70
3
  9
$PEXTMIN
 10
100000000000000000000.0
 20
100000000000000000000.0
 30
100000000000000000000.0
  9
$TDUSRTIMER
 40
0.0000004514
  9
$DWGCODEPAGE
  3
ANSI_1252
  9
$SORTENTS
280
127
  9
$UCSORTHOVIEW
 70
0
  9
$DIMSOXD
 70
0
  9
$DIMTZIN
 70
0
  9
$SPLINETYPE
 70
6
  9
$DIMLFAC
 40
1.0
  9
$DIMSE1
 70
0
  9
$FILLETRAD
 40
4.9999999999999991
  9
$DIMSE2
 70
0
  9
$PSTYLEMODE
290
1
  9
$TEXTSTYLE
  7
Standard
  9
$DIMTSZ
 40
0.0
  9
$PUCSXDIR
 10
1.0
 20
0.0
 30
0.0
  9
$XCLIPFRAME
290
0
  9
$DIMTXSTY
  7
Standard
  9
$PLIMMAX
 10
297.0
 20
210.0
  9
$DIMTM
 40
0.0
  9
$UCSORG
 10
0.0
 20
0.0
 30
0.0
  9
$DIMTP
 40
0.0
  9
$PSLTSCALE
 70
1
  9
$EXTNAMES
290
1
  9
$ANGBASE
 50
0.0
  9
$PUCSYDIR
 10
0.0
 20
1.0
 30
0.0
  9
$DIMASZ
 40
3.0
  9
$PUCSORTHOVIEW
 70
0
  9
$UNITMODE
 70
0
  9
$INDEXCTL
280
0
  9
$MEASUREMENT
 70
1
  9
$INSBASE
 10
0.0
 20
0.0
 30
0.0
  9
$EXTMAX
 10
310.14545968788468
 20
200.73896449605701
 30
0.00000001
  9
$ELEVATION
 40
0.0
  9
$TDCREATE
 40
2456233.86259691
  9
$DIMDEC
 70
2
  9
$CELTYPE
  6
ByLayer
  9
$GRIDUNIT
 10
0.0
 20
0.0
  9
$MENU
  1
.
  9
$ANGDIR
 70
0
  9
$DIMALTTD
 70
2
  9
$TREEDEPTH
 70
3020
  9
$PROXYGRAPHICS
 70
1
  9
$LTSCALE
 40
1.0
  9
$DIMTMOVE
 70
0
  9
$DIMAZIN
 70
8
  9
$TDUPDATE
 40
2456233.86259691
  9
$DIMTOLJ
 70
1
  9
$DIMCEN
 40
0.09
  9
$DIMTVP
 40
0.0
  9
$TRACEWID
 40
0.05
  9
$CMLSTYLE
  2
Standard
  9
$DISPSILH
 70
0
  9
$DIMSTYLE
  2
Standard
  9
$SKETCHINC
 40
0.1
  9
$FILLMODE
 70
1
  9
$PLINEGEN
 70
0
  9
$DIMLWD
 70
-2
  9
$THICKNESS
 40
0.0
  9
$PUCSORG
 10
0.0
 20
0.0
 30
0.0
  9
$DIMLWE
 70
-2
  9
$CELTSCALE
 40
1.0
  9
$DIMALTTZ
 70
0
  9
$INSUNITS
 70
0
  9
$UCSORGBACK
 10
0.0
 20
0.0
 30
0.0
  9
$PLINEWID
 40
0.0
  9
$PEXTMAX
 10
-100000000000000000000.0
 20
-100000000000000000000.0
 30
-100000000000000000000.0
  9
$DIMJUST
 70
0
  9
$DIMASSOC
280
2
  9
$UCSYDIR
 10
0.0
 20
1.0
 30
0.0
  9
$PUCSORGBACK
 10
0.0
 20
0.0
 30
0.0
  9
$GRIDMODE
 70
1
  9
$PUCSORGBOTTOM
 10
0.0
 20
0.0
 30
0.0
  9
$PDSIZE
 40
0.0
  9
$DIMUPT
 70
0
  9
$DIMTAD
 70
0
  9
$MAXACTVP
 70
64
  9
$UCSXDIR
 10
1.0
 20
0.0
 30
0.0
  9
$DIMSAH
 70
0
  9
$HALOGAP
280
0
  9
$TDUCREATE
 40
2456233.820930243
  9
$DIMFRAC
 70
0
  9
$USERI1
 70
0
  9
$USERI2
 70
0
  9
$CELWEIGHT
370
-1
  9
$USERI3
 70
0
  9
$UCSORGRIGHT
 10
0.0
 20
0.0
 30
0.0
  9
$LWDISPLAY
290
0
  9
$SKPOLY
 70
0
  9
$USERI4
 70
0
  9
$USERI5
 70
0
  9
$UCSORGTOP
 10
0.0
 20
0.0
 30
0.0
  9
$LIMMIN
 10
0.0
 20
0.0
  9
$ACADMAINTVER
 70
39
  9
$MIRRTEXT
 70
0
  9
$TDUUPDATE
 40
2456233.820930243
  9
$TEXTSIZE
 40
9.9999999999999982
  9
$DIMGAP
 40
0.75
  9
$LUPREC
 70
2
  9
$CECOLOR
 62
1
  9
$DIMSD1
 70
0
  9
$DIMSD2
 70
0
  9
$WORLDVIEW
 70
1
  9
$PUCSORGRIGHT
 10
0.0
 20
0.0
 30
0.0
  9
$PLIMCHECK
 70
0
  9
$DIMTFAC
 40
1.0
  9
$CMLJUST
 70
0
  9
$USRTIMER
 70
1
  9
$SURFU
 70
6
  9
$SURFV
 70
6
  9
$DIMASO
 70
1
  9
$DIMDLE
 40
0.0
  9
$EXTMIN
 10
11.47560975609753
 20
37.392682926829274
 30
-0.00000001
  9
$UCSORGLEFT
 10
0.0
 20
0.0
 30
0.0
  9
$OLESTARTUP
290
0
  9
$PUCSORGFRONT
 10
0.0
 20
0.0
 30
0.0
  9
$DIMDLI
 40
0.38
  9
$LUNITS
 70
2
  9
$DIMCLRD
 70
0
  9
$SHADEDIF
 70
70
  9
$DIMCLRE
 70
0
  9
$SPLINESEGS
 70
8
  9
$PUCSORGLEFT
 10
0.0
 20
0.0
 30
0.0
  9
$INTERSECTIONDISPLAY
280
0
  9
$DIMALTRND
 40
0.0
  9
$DIMRND
 40
0.0
  9
$DIMALT
 70
0
  9
$FINGERPRINTGUID
  2
{5DB517D2-6EA4-4FB0-9C8E-AB2D2612AA3E}
  9
$DIMCLRT
 70
0
  9
$PUCSORGTOP
 10
0.0
 20
0.0
 30
0.0
  9
$OBSLTYPE
280
0
  9
$DIMTOH
 70
1
  9
$UCSORGFRONT
 10
0.0
 20
0.0
 30
0.0
  9
$VISRETAIN
 70
1
  9
$SHADEDGE
 70
3
  9
$DIMTOL
 70
0
  9
$SURFTYPE
 70
6
  9
$VERSIONGUID
  2
{D688FA28-3A96-4F35-BCFC-8FC300B1F898}
  9
$CHAMFERA
 40
4.9999999999999991
  9
$SURFTAB1
 70
6
  9
$CHAMFERB
 40
4.9999999999999991
  9
$SURFTAB2
 70
6
  9
$CHAMFERC
 40
0.0
  9
$AUPREC
 70
2
  9
$CHAMFERD
 40
0.0
  9
$DIMTDEC
 70
4
  9
$PDMODE
 70
0
  9
$PLIMMIN
 10
0.0
 20
0.0
  9
$SPLFRAME
 70
0
  9
$XEDIT
290
1
  9
$DIMDSEP
 70
46
  9
$LIMCHECK
 70
0
  9
$PINSBASE
 10
56.593220338983087
 20
29.31355932203391
 30
0.0
  9
$ORTHOMODE
 70
0
  9
$PSVPSCALE
 40
0.8
  9
$CLAYER
  8
0
  9
$DIMSHO
 70
1
  9
$DIMTOFL
 70
0
  9
$DIMTXT
 40
3.0
  9
$DIMEXE
 40
1.5
  9
$TDINDWG
 40
0.0000004514
  9
$REGENMODE
 70
1
  9
$ATTMODE
 70
1
  9
$CMLSCALE
 40
1.0
  9
$DIMTIH
 70
1
  9
$DIMZIN
 70
8
  9
$CEPSNTYPE
380
0
  9
$HIDETEXT
280
1
  9
$DIMSCALE
 40
1.0
  9
$INTERSECTIONCOLOR
 70
257
  9
$DIMALTD
 70
2
  9
$DIMAUNIT
 70
0
  9
$DIMEXO
 40
0.75
  9
$DIMALTF
 40
25.399999999999999
  9
$ENDCAPS
280
0
  9
$CLAYER
  8
1-Perpectiva
  0
ENDSEC
  0
SECTION
  2
TABLES
  0
TABLE
  2
VPORT
  5
8
100
AcDbSymbolTable
 70
1
  0
VPORT
  5
30
100
AcDbSymbolTableRecord
100
AcDbViewportTableRecord
  2
*Active
 70
0
 10
0.0
 20
0.0
 11
1.0
 21
1.0
 12
286.30555555555549
 22
148.5
 13
0.0
 23
0.0
 14
10.0
 24
10.0
 15
10.0
 25
10.0
 16
0.0
 26
0.0
 36
1.0
 17
0.0
 27
0.0
 37
0.0
 40
297.0
 41
1.92798353909465
 42
50.0
 43
0.0
 44
0.0
 50
0.0
 51
0.0
 71
0
 72
100
 73
1
 74
3
 75
1
 76
1
 77
0
 78
0
281
0
 65
1
110
0.0
120
0.0
130
0.0
111
1.0
121
0.0
131
0.0
112
0.0
122
1.0
132
0.0
 79
0
146
0.0
  0
ENDTAB
  0
TABLE
  2
LTYPE
  5
5
100
AcDbSymbolTable
 70
21
  0
LTYPE
  5
14
100
AcDbSymbolTableRecord
100
AcDbLinetypeTableRecord
  2
ByBlock
 70
0
  3

 72
65
 73
0
 40
0.0
  0
LTYPE
  5
15
100
AcDbSymbolTableRecord
100
AcDbLinetypeTableRecord
  2
ByLayer
 70
0
  3

 72
65
 73
0
 40
0.0
  0
LTYPE
  5
16
100
AcDbSymbolTableRecord
100
AcDbLinetypeTableRecord
  2
CONTINUOUS
 70
0
  3
Solid line
 72
65
 73
0
 40
0.0
  0
LTYPE
  5
31
100
AcDbSymbolTableRecord
100
AcDbLinetypeTableRecord
  2
DOT
 70
0
  3
Dot . . . . . . . . . . . . . . . . . . . . . .
 72
65
 73
2
 40
6.3499999999999996
 49
0.0
 74
0
 49
-6.3499999999999996
 74
0
  0
LTYPE
  5
32
100
AcDbSymbolTableRecord
100
AcDbLinetypeTableRecord
  2
DOT2
 70
0
  3
Dot (.5x) .....................................
 72
65
 73
2
 40
3.1749999999999998
 49
0.0
 74
0
 49
-3.1749999999999998
 74
0
  0
LTYPE
  5
33
100
AcDbSymbolTableRecord
100
AcDbLinetypeTableRecord
  2
DOTX2
 70
0
  3
Dot (2x) .  .  .  .  .  .  .  .  .  .  .  .  .
 72
65
 73
2
 40
12.699999999999999
 49
0.0
 74
0
 49
-12.699999999999999
 74
0
  0
LTYPE
  5
34
100
AcDbSymbolTableRecord
100
AcDbLinetypeTableRecord
  2
DASHED
 70
0
  3
Dashed __ __ __ __ __ __ __ __ __ __ __ __ __ _
 72
65
 73
2
 40
19.050000000000001
 49
12.699999999999999
 74
0
 49
-6.3499999999999996
 74
0
  0
LTYPE
  5
35
100
AcDbSymbolTableRecord
100
AcDbLinetypeTableRecord
  2
DASHED2
 70
0
  3
Dashed (.5x) _ _ _ _ _ _ _ _ _ _ _ _ _ _ _ _ _
 72
65
 73
2
 40
9.5250000000000004
 49
6.3499999999999996
 74
0
 49
-3.1749999999999998
 74
0
  0
LTYPE
  5
36
100
AcDbSymbolTableRecord
100
AcDbLinetypeTableRecord
  2
DASHEDX2
 70
0
  3
Dashed (2x) ____  ____  ____  ____  ____  ___
 72
65
 73
2
 40
38.100000000000001
 49
25.399999999999999
 74
0
 49
-12.699999999999999
 74
0
  0
LTYPE
  5
37
100
AcDbSymbolTableRecord
100
AcDbLinetypeTableRecord
  2
DASHDOT
 70
0
  3
Dash dot __ . __ . __ . __ . __ . __ . __ . __
 72
65
 73
4
 40
25.399999999999999
 49
12.699999999999999
 74
0
 49
-6.3499999999999996
 74
0
 49
0.0
 74
0
 49
-6.3499999999999996
 74
0
  0
LTYPE
  5
38
100
AcDbSymbolTableRecord
100
AcDbLinetypeTableRecord
  2
DASHDOT2
 70
0
  3
Dash dot (.5x) _._._._._._._._._._._._._._._.
 72
65
 73
4
 40
12.699999999999999
 49
6.3499999999999996
 74
0
 49
-3.1749999999999998
 74
0
 49
0.0
 74
0
 49
-3.1749999999999998
 74
0
  0
LTYPE
  5
39
100
AcDbSymbolTableRecord
100
AcDbLinetypeTableRecord
  2
DASHDOTX2
 70
0
  3
Dash dot (2x) ____  .  ____  .  ____  .  ___
 72
65
 73
4
 40
50.799999999999997
 49
25.399999999999999
 74
0
 49
-12.699999999999999
 74
0
 49
0.0
 74
0
 49
-12.699999999999999
 74
0
  0
LTYPE
  5
3A
100
AcDbSymbolTableRecord
100
AcDbLinetypeTableRecord
  2
DIVIDE
 70
0
  3
Divide ____ . . ____ . . ____ . . ____ . . ____
 72
65
 73
6
 40
31.75
 49
12.699999999999999
 74
0
 49
-6.3499999999999996
 74
0
 49
0.0
 74
0
 49
-6.3499999999999996
 74
0
 49
0.0
 74
0
 49
-6.3499999999999996
 74
0
  0
LTYPE
  5
3B
100
AcDbSymbolTableRecord
100
AcDbLinetypeTableRecord
  2
DIVIDE2
 70
0
  3
Divide (.5x) __..__..__..__..__..__..__..__.._
 72
65
 73
6
 40
15.875
 49
6.3499999999999996
 74
0
 49
-3.1749999999999998
 74
0
 49
0.0
 74
0
 49
-3.1749999999999998
 74
0
 49
0.0
 74
0
 49
-3.1749999999999998
 74
0
  0
LTYPE
  5
3C
100
AcDbSymbolTableRecord
100
AcDbLinetypeTableRecord
  2
DIVIDEX2
 70
0
  3
Divide (2x) ________  .  .  ________  .  .  _
 72
65
 73
6
 40
63.5
 49
25.399999999999999
 74
0
 49
-12.699999999999999
 74
0
 49
0.0
 74
0
 49
-12.699999999999999
 74
0
 49
0.0
 74
0
 49
-12.699999999999999
 74
0
  0
LTYPE
  5
3D
100
AcDbSymbolTableRecord
100
AcDbLinetypeTableRecord
  2
CENTER
 70
0
  3
Center ____ _ ____ _ ____ _ ____ _ ____ _ ____
 72
65
 73
4
 40
50.799999999999997
 49
31.75
 74
0
 49
-6.3499999999999996
 74
0
 49
6.3499999999999996
 74
0
 49
-6.3499999999999996
 74
0
  0
LTYPE
  5
3E
100
AcDbSymbolTableRecord
100
AcDbLinetypeTableRecord
  2
CENTER2
 70
0
  3
Center (.5x) ___ _ ___ _ ___ _ ___ _ ___ _ ___
 72
65
 73
4
 40
28.574999999999999
 49
19.050000000000001
 74
0
 49
-3.1749999999999998
 74
0
 49
3.1749999999999998
 74
0
 49
-3.1749999999999998
 74
0
  0
LTYPE
  5
3F
100
AcDbSymbolTableRecord
100
AcDbLinetypeTableRecord
  2
CENTERX2
 70
0
  3
Center (2x) ________  __  ________  __  _____
 72
65
 73
4
 40
101.59999999999999
 49
63.5
 74
0
 49
-12.699999999999999
 74
0
 49
12.699999999999999
 74
0
 49
-12.699999999999999
 74
0
  0
LTYPE
  5
40
100
AcDbSymbolTableRecord
100
AcDbLinetypeTableRecord
  2
BORDER
 70
0
  3
Border __ __ . __ __ . __ __ . __ __ . __ __ .
 72
65
 73
6
 40
44.450000000000003
 49
12.699999999999999
 74
0
 49
-6.3499999999999996
 74
0
 49
12.699999999999999
 74
0
 49
-6.3499999999999996
 74
0
 49
0.0
 74
0
 49
-6.3499999999999996
 74
0
  0
LTYPE
  5
41
100
AcDbSymbolTableRecord
100
AcDbLinetypeTableRecord
  2
BORDER2
 70
0
  3
Border (.5x) __.__.__.__.__.__.__.__.__.__.__.
 72
65
 73
6
 40
22.225000000000001
 49
6.3499999999999996
 74
0
 49
-3.1749999999999998
 74
0
 49
6.3499999999999996
 74
0
 49
-3.1749999999999998
 74
0
 49
0.0
 74
0
 49
-3.1749999999999998
 74
0
  0
LTYPE
  5
42
100
AcDbSymbolTableRecord
100
AcDbLinetypeTableRecord
  2
BORDERX2
 70
0
  3
Border (2x) ____  ____  .  ____  ____  .  ___
 72
65
 73
6
 40
88.900000000000006
 49
25.399999999999999
 74
0
 49
-12.699999999999999
 74
0
 49
25.399999999999999
 74
0
 49
-12.699999999999999
 74
0
 49
0.0
 74
0
 49
-12.699999999999999
 74
0
  0
ENDTAB
  0
TABLE
  2
LAYER
  5
2
100
AcDbSymbolTable
 70
3
  0
LAYER
  5
10
100
AcDbSymbolTableRecord
100
AcDbLayerTableRecord
  2
0
 70
0
 62
7
420
0
  6
DASHDOT2
370
-3
390
F
  0
LAYER
  5
43
100
AcDbSymbolTableRecord
100
AcDbLayerTableRecord
  2
1-Perpectiva
 70
0
 62
1
420
16711680
  6
CONTINUOUS
370
-3
390
F
  0
LAYER
  5
44
100
AcDbSymbolTableRecord
100
AcDbLayerTableRecord
  2
0-Datos
 70
0
 62
7
420
0
  6
CONTINUOUS
370
0
390
F
  0
ENDTAB
  0
TABLE
  2
STYLE
  5
3
100
AcDbSymbolTable
 70
1
  0
STYLE
  5
11
100
AcDbSymbolTableRecord
100
AcDbTextStyleTableRecord
  2
Standard
 70
0
 40
0.0
 41
0.75
 50
0.0
 71
0
 42
2.5
  3
txt
  4

  0
ENDTAB
  0
TABLE
  2
VIEW
  5
6
100
AcDbSymbolTable
 70
0
  0
ENDTAB
  0
TABLE
  2
UCS
  5
7
100
AcDbSymbolTable
 70
0
  0
ENDTAB
  0
TABLE
  2
APPID
  5
9
100
AcDbSymbolTable
 70
1
  0
APPID
  5
12
100
AcDbSymbolTableRecord
100
AcDbRegAppTableRecord
  2
ACAD
 70
0
  0
ENDTAB
  0
TABLE
  2
DIMSTYLE
  5
A
100
AcDbSymbolTable
 70
1
100
AcDbDimStyleTable
 71
0
  0
DIMSTYLE
105
27
100
AcDbSymbolTableRecord
100
AcDbDimStyleTableRecord
  2
Standard
 41
3.0
 42
0.75
 43
3.75
 44
1.5
 70
0
 73
0
 74
0
 77
1
 78
8
140
3.0
141
2.5
143
0.03937007874016
147
0.75
171
3
172
1
271
2
272
2
274
3
278
44
283
0
284
8
340
11
  0
ENDTAB
  0
TABLE
  2
BLOCK_RECORD
  5
1
100
AcDbSymbolTable
 70
1
  0
BLOCK_RECORD
  5
1F
100
AcDbSymbolTableRecord
100
AcDbBlockTableRecord
  2
*Model_Space
340
22
  0
BLOCK_RECORD
  5
1B
100
AcDbSymbolTableRecord
100
AcDbBlockTableRecord
  2
*Paper_Space
340
1E
  0
BLOCK_RECORD
  5
23
100
AcDbSymbolTableRecord
100
AcDbBlockTableRecord
  2
*Paper_Space0
340
26
  0
BLOCK_RECORD
  5
45
100
AcDbSymbolTableRecord
100
AcDbBlockTableRecord
  2
punta flecha
340
0
  0
ENDTAB
  0
ENDSEC
  0
SECTION
  2
BLOCKS
  0
BLOCK
  5
20
100
AcDbEntity
  8
0
100
AcDbBlockBegin
  2
*Model_Space
 70
0
 10
0.0
 20
0.0
 30
0.0
  3
*Model_Space
  1

  0
ENDBLK
  5
21
100
AcDbEntity
  8
0
100
AcDbBlockEnd
  0
BLOCK
  5
1C
100
AcDbEntity
 67
1
  8
0
100
AcDbBlockBegin
  2
*Paper_Space
 70
0
 10
0.0
 20
0.0
 30
0.0
  3
*Paper_Space
  1

  0
ENDBLK
  5
1D
100
AcDbEntity
 67
1
  8
0
100
AcDbBlockEnd
  0
BLOCK
  5
24
100
AcDbEntity
  8
0
100
AcDbBlockBegin
  2
*Paper_Space0
 70
0
 10
0.0
 20
0.0
 30
0.0
  3
*Paper_Space0
  1

  0
ENDBLK
  5
25
100
AcDbEntity
  8
0
100
AcDbBlockEnd
  0
BLOCK
  5
46
100
AcDbEntity
  8
0
100
AcDbBlockBegin
  2
punta flecha
 70
0
 10
0.0
 20
0.0
 30
0.0
  3
punta flecha
  1

  0
HATCH
  5
47
  8
0
 62
6
420
16711935
370
-1
  6
ByBlock
100
AcDbEntity
100
AcDbHatch
 10
0.0
 20
0.0
 30
0.0
210
0.0
220
0.0
230
1.0
  2
SOLID
 70
1
 71
0
 91
1
 92
1
 93
3
 72
1
 10
0.0
 20
0.0
 11
5.0800000000000001
 21
-0.6349999999999999
 72
1
 10
5.0800000000000001
 20
-0.6349999999999999
 11
5.0800000000000001
 21
0.6349999999999999
 72
1
 10
5.0800000000000001
 20
0.6349999999999999
 11
0.0
 21
0.0
 97
0
 75
0
 76
1
 98
0
  0
ENDBLK
  5
48
100
AcDbEntity
  8
0
100
AcDbBlockEnd
  0
ENDSEC
  0
SECTION
  2
ENTITIES
  0
MTEXT
  5
49
100
AcDbEntity
100
AcDbMText
  8
0
 62
256
370
-1
  6
CONTINUOUS
 10
182.80401468896815
 20
141.39263591014955
 30
0.0
 40
5.0
 41
100.0
 71
1
 72
2
  1
Z
  7
standard
 50
0.0
 73
1
 44
1.0
  0
MTEXT
  5
4A
100
AcDbEntity
100
AcDbMText
  8
0
 62
256
370
-1
  6
CONTINUOUS
 10
141.88759262862149
 20
45.865989245066018
 30
0.0
 40
5.0
 41
100.0
 71
1
 72
2
  1
Y
  7
standard
 50
0.0
 73
1
 44
1.0
  0
MTEXT
  5
4B
100
AcDbEntity
100
AcDbMText
  8
0
 62
256
370
-1
  6
CONTINUOUS
 10
275.69089218886802
 20
84.637598858700954
 30
0.0
 40
5.0
 41
100.0
 71
1
 72
2
  1
X
  7
standard
 50
0.0
 73
1
 44
1.0
  0
LINE
  5
4C
100
AcDbEntity
100
AcDbLine
  8
0
 62
256
370
-1
  6
DASHDOT2
 10
144.0862079803756
 20
36.294835921150536
 30
0.0
 11
184.0517676861173
 21
76.260395626892233
 31
0.0
  0
LINE
  5
4D
100
AcDbEntity
100
AcDbLine
  8
0
 62
256
370
-1
  6
ByLayer
 10
184.0517676861173
 20
76.260395626892233
 30
0.0
 11
184.0517676861173
 21
136.26039562689223
 31
0.0
  0
LINE
  5
4E
100
AcDbEntity
100
AcDbLine
  8
0
 62
256
370
-1
  6
ByLayer
 10
184.0517676861173
 20
76.260395626892233
 30
0.0
 11
281.19214320876438
 21
76.260395626892233
 31
0.0
  0
LINE
  5
4F
100
AcDbEntity
100
AcDbLine
  8
0
 62
256
370
-1
  6
DASHDOT2
 10
34.034296747391934
 20
61.294835921150494
 30
0.0
 11
118.03429674739192
 21
61.294835921150494
 31
0.0
  0
LINE
  5
50
100
AcDbEntity
100
AcDbLine
  8
0
 62
256
370
-1
  6
DASHDOT2
 10
76.034296747391991
 20
19.294835921150579
 30
0.0
 11
76.034296747391991
 21
103.29483592115055
 31
0.0
  0
LINE
  5
51
100
AcDbEntity
100
AcDbLine
  8
0
 62
256
370
-1
  6
DASHDOT2
 10
76.034296747391949
 20
124.39053283028744
 30
0.0
 11
76.034296747391949
 21
178.3905328302873
 31
0.0
  0
LINE
  5
52
100
AcDbEntity
100
AcDbLine
  8
0
 62
256
370
-1
  6
DASHDOT2
 10
51.03429674739192
 20
138.89053283028736
 30
0.0
 11
101.03429674739195
 21
138.89053283028736
 31
0.0
  0
LINE
  5
53
100
AcDbEntity
100
AcDbLine
  8
0
 62
256
370
-1
  6
DASHDOT2
 10
-47.490967426427488
 20
138.89053283028736
 30
0.0
 11
-32.490967426427432
 21
138.89053283028736
 31
0.0
  0
LINE
  5
54
100
AcDbEntity
100
AcDbLine
  8
0
 62
256
370
-1
  6
DASHDOT2
 10
41.034296747391963
 20
26.294835921150479
 30
0.0
 11
41.034296747391963
 21
96.294835921150479
 31
0.0
  0
LINE
  5
55
100
AcDbEntity
100
AcDbLine
  8
0
 62
256
370
-1
  6
DASHDOT2
 10
120.00472613049276
 20
96.294835921150479
 30
0.0
 11
41.034296747391963
 21
96.294835921150479
 31
0.0
  0
INSERT
  5
56
100
AcDbEntity
100
AcDbBlockReference
  8
0
 62
256
370
-1
  6
ByLayer
  2
punta flecha
 10
41.034296747391963
 20
17.324406538049629
 30
0.0
 50
90.0
 44
1.0
 45
1.0
  0
INSERT
  5
57
100
AcDbEntity
100
AcDbBlockReference
  8
0
 62
256
370
-1
  6
ByLayer
  2
punta flecha
 10
-53.961396809528338
 20
128.8905328302873
 30
0.0
 44
1.0
 45
1.0
  0
LINE
  5
58
100
AcDbEntity
100
AcDbLine
  8
0
 62
6
420
16711935
370
-1
  6
CONTINUOUS
 10
130.51649886518504
 20
96.294835921150479
 30
0.0
 11
114.37775515266316
 21
96.294835921150479
 31
0.0
  0
INSERT
  5
59
100
AcDbEntity
100
AcDbBlockReference
  8
0
 62
256
370
-1
  6
ByLayer
  2
punta flecha
 10
130.51649886518504
 20
96.294835921150479
 30
0.0
 50
180.0
 44
1.0
 45
1.0
  0
INSERT
  5
5A
100
AcDbEntity
100
AcDbBlockReference
  8
0
 62
256
370
-1
  6
ByLayer
  2
punta flecha
 10
146.15165027506819
 20
128.8905328302873
 30
0.0
 50
180.0
 44
1.0
 45
1.0
  0
INSERT
  5
5B
100
AcDbEntity
100
AcDbBlockReference
  8
0
 62
256
370
-1
  6
ByLayer
  2
punta flecha
 10
41.034296747391963
 20
182.86096221338804
 30
0.0
 50
270.0
 44
1.0
 45
1.0
  0
INSERT
  5
5C
100
AcDbEntity
100
AcDbBlockReference
  8
0
 62
256
370
-1
  6
ByLayer
  2
punta flecha
 10
25.009032573572568
 20
182.86096221338804
 30
0.0
 50
270.0
 44
1.0
 45
1.0
  0
INSERT
  5
5D
100
AcDbEntity
100
AcDbBlockReference
  8
0
 62
256
370
-1
  6
ByLayer
  2
punta flecha
 10
-53.961396809528338
 20
128.8905328302873
 30
0.0
 44
1.0
 45
1.0
  0
LINE
  5
5E
100
AcDbEntity
100
AcDbLine
  8
0
 62
6
420
16711935
370
-1
  6
CENTER2
 10
-53.961396809528338
 20
128.8905328302873
 30
0.0
 11
-44.990967426427488
 21
128.8905328302873
 31
0.0
  0
LINE
  5
5F
100
AcDbEntity
100
AcDbLine
  8
0
 62
6
420
16711935
370
-1
  6
CENTER2
 10
25.009032573572568
 20
182.86096221338804
 30
0.0
 11
25.009032573572568
 21
173.89053283028733
 31
0.0
  0
LINE
  5
60
100
AcDbEntity
100
AcDbLine
  8
0
 62
6
420
16711935
370
-1
  6
CONTINUOUS
 10
41.034296747391963
 20
17.324406538049629
 30
0.0
 11
41.034296747391963
 21
26.294835921150479
 31
0.0
  0
LINE
  5
61
100
AcDbEntity
100
AcDbLine
  8
0
 62
6
420
16711935
370
-1
  6
CONTINUOUS
 10
146.15165027506819
 20
128.8905328302873
 30
0.0
 11
111.03429674739201
 21
128.8905328302873
 31
0.0
  0
LINE
  5
62
100
AcDbEntity
100
AcDbLine
  8
0
 62
6
420
16711935
370
-1
  6
CENTER2
 10
41.034296747391963
 20
182.86096221338804
 30
0.0
 11
41.034296747391963
 21
173.89053283028733
 31
0.0
  0
MTEXT
  5
63
100
AcDbEntity
100
AcDbMText
  8
0
 62
6
420
16711935
370
-1
  6
CONTINUOUS
 10
-52.069788133399356
 20
134.2052469647364
 30
0.0
 40
3.9999999999999991
 41
150.0
 71
4
 72
2
  1
Y
  7
ARIAL
 50
0.0
 73
1
 44
1.0
  0
MTEXT
  5
64
100
AcDbEntity
100
AcDbMText
  8
0
 62
6
420
16711935
370
-1
  6
CENTER2
 10
19.69431843912345
 20
181.67948851144456
 30
0.0
 40
3.9999999999999991
 41
150.0
 71
4
 72
2
  1
Z
  7
ARIAL
 50
0.0
 73
1
 44
1.0
  0
MTEXT
  5
65
100
AcDbEntity
100
AcDbMText
  8
0
 62
6
420
16711935
370
-1
  6
CONTINUOUS
 10
35.215584516944617
 20
20.829011202497071
 30
0.0
 40
3.9999999999999991
 41
150.0
 71
4
 72
2
  1
Y
  7
ARIAL
 50
0.0
 73
1
 44
1.0
  0
MTEXT
  5
66
100
AcDbEntity
100
AcDbMText
  8
0
 62
6
420
16711935
370
-1
  6
CONTINUOUS
 10
142.32433760004395
 20
134.2052469647364
 30
0.0
 40
3.9999999999999991
 41
150.0
 71
4
 72
2
  1
X
  7
ARIAL
 50
0.0
 73
1
 44
1.0
  0
MTEXT
  5
67
100
AcDbEntity
100
AcDbMText
  8
0
 62
6
420
16711935
370
-1
  6
CONTINUOUS
 10
116.17741345546864
 20
101.60955005559961
 30
0.0
 40
3.9999999999999991
 41
150.0
 71
4
 72
2
  1
X
  7
ARIAL
 50
0.0
 73
1
 44
1.0
  0
MTEXT
  5
68
100
AcDbEntity
100
AcDbMText
  8
0
 62
6
420
16711935
370
-1
  6
CENTER2
 10
43.075257808744652
 20
181.67948851144456
 30
0.0
 40
3.9999999999999991
 41
150.0
 71
4
 72
2
  1
Z
  7
ARIAL
 50
0.0
 73
1
 44
1.0
  0
LINE
  5
69
100
AcDbEntity
100
AcDbLine
  8
0-Datos
 62
92
420
42240
370
-1
  6
CONTINUOUS
 10
41.034296747391963
 20
128.8905328302873
 30
0.0
 11
111.03429674739201
 21
128.8905328302873
 31
0.0
  0
LINE
  5
6A
100
AcDbEntity
100
AcDbLine
  8
0-Datos
 62
142
420
31909
370
-1
  6
CONTINUOUS
 10
41.034296747391963
 20
26.294835921150479
 30
0.0
 11
41.034296747391963
 21
61.294835921150494
 31
0.0
  0
LINE
  5
6B
100
AcDbEntity
100
AcDbLine
  8
0-Datos
 62
142
420
31909
370
-1
  6
CONTINUOUS
 10
111.03429674739201
 20
26.294835921150479
 30
0.0
 11
111.03429674739201
 21
61.294835921150494
 31
0.0
  0
LINE
  5
6C
100
AcDbEntity
100
AcDbLine
  8
0-Datos
 62
142
420
31909
370
-1
  6
CONTINUOUS
 10
51.03429674739192
 20
61.294835921150494
 30
0.0
 11
51.034296747391991
 21
36.294835921150536
 31
0.0
  0
LINE
  5
6D
100
AcDbEntity
100
AcDbLine
  8
0-Datos
 62
142
420
31909
370
-1
  6
CONTINUOUS
 10
101.03429674739195
 20
61.294835921150494
 30
0.0
 11
101.03429674739195
 21
36.294835921150536
 31
0.0
  0
LINE
  5
6E
100
AcDbEntity
100
AcDbLine
  8
0-Datos
 62
142
420
31909
370
-1
  6
CONTINUOUS
 10
111.03429674739201
 20
26.294835921150479
 30
0.0
 11
41.034296747391963
 21
26.294835921150479
 31
0.0
  0
ARC
  5
6F
100
AcDbEntity
  8
0-Datos
 62
142
420
31909
370
-1
  6
CONTINUOUS
100
AcDbCircle
 10
76.034296747391949
 20
61.294835921150494
 30
0.0
 40
25.000000000000007
100
AcDbArc
 50
0.0
 51
180.0
  0
ARC
  5
70
100
AcDbEntity
  8
0-Datos
 62
142
420
31909
370
-1
  6
CONTINUOUS
100
AcDbCircle
 10
76.034296747391949
 20
61.294835921150494
 30
0.0
 40
34.999999999999993
100
AcDbArc
 50
0.0
 51
180.0
  0
LINE
  5
71
100
AcDbEntity
100
AcDbLine
  8
0-Datos
 62
92
420
42240
370
-1
  6
CONTINUOUS
 10
41.034296747391963
 20
128.8905328302873
 30
0.0
 11
41.034296747391963
 21
173.89053283028733
 31
0.0
  0
LINE
  5
72
100
AcDbEntity
100
AcDbLine
  8
0-Datos
 62
92
420
42240
370
-1
  6
CONTINUOUS
 10
111.03429674739201
 20
128.8905328302873
 30
0.0
 11
111.03429674739201
 21
173.89053283028733
 31
0.0
  0
LINE
  5
73
100
AcDbEntity
100
AcDbLine
  8
0-Datos
 62
92
420
42240
370
-1
  6
CONTINUOUS
 10
51.03429674739192
 20
128.8905328302873
 30
0.0
 11
51.03429674739192
 21
138.89053283028736
 31
0.0
  0
LINE
  5
74
100
AcDbEntity
100
AcDbLine
  8
0-Datos
 62
92
420
42240
370
-1
  6
CONTINUOUS
 10
101.03429674739195
 20
128.8905328302873
 30
0.0
 11
101.03429674739195
 21
138.89053283028736
 31
0.0
  0
LINE
  5
75
100
AcDbEntity
100
AcDbLine
  8
0-Datos
 62
92
420
42240
370
-1
  6
DASHED2
 10
41.034296747391963
 20
138.89053283028736
 30
0.0
 11
51.03429674739192
 21
138.89053283028736
 31
0.0
  0
LINE
  5
76
100
AcDbEntity
100
AcDbLine
  8
0-Datos
 62
142
420
31909
370
-1
  6
CONTINUOUS
 10
111.03429674739201
 20
36.294835921150536
 30
0.0
 11
101.03429674739195
 21
36.294835921150536
 31
0.0
  0
LINE
  5
77
100
AcDbEntity
100
AcDbLine
  8
0-Datos
 62
142
420
31909
370
-1
  6
CONTINUOUS
 10
51.034296747391991
 20
36.294835921150536
 30
0.0
 11
41.034296747391963
 21
36.294835921150536
 31
0.0
  0
LINE
  5
78
100
AcDbEntity
100
AcDbLine
  8
0-Datos
 62
142
420
31909
370
-1
  6
DASHED2
 10
51.034296747391991
 20
36.294835921150536
 30
0.0
 11
51.034296747391991
 21
26.294835921150479
 31
0.0
  0
LINE
  5
79
100
AcDbEntity
100
AcDbLine
  8
0-Datos
 62
142
420
31909
370
-1
  6
CONTINUOUS
 10
101.03429674739195
 20
36.294835921150536
 30
0.0
 11
51.034296747391991
 21
36.294835921150536
 31
0.0
  0
LINE
  5
7A
100
AcDbEntity
100
AcDbLine
  8
0-Datos
 62
142
420
31909
370
-1
  6
DASHED2
 10
101.03429674739195
 20
36.294835921150536
 30
0.0
 11
101.03429674739195
 21
26.294835921150479
 31
0.0
  0
ARC
  5
7B
100
AcDbEntity
  8
0-Datos
 62
92
420
42240
370
-1
  6
CONTINUOUS
100
AcDbCircle
 10
76.034296747391949
 20
138.89053283028736
 30
0.0
 40
25.000000000000007
100
AcDbArc
 50
0.0
 51
180.0
  0
LINE
  5
7C
100
AcDbEntity
100
AcDbLine
  8
0-Datos
 62
92
420
42240
370
-1
  6
CONTINUOUS
 10
111.03429674739201
 20
173.89053283028733
 30
0.0
 11
41.034296747391963
 21
173.89053283028733
 31
0.0
  0
LINE
  5
7D
100
AcDbEntity
100
AcDbLine
  8
0-Datos
 62
92
420
42240
370
-1
  6
DASHED2
 10
51.03429674739192
 20
138.89053283028736
 30
0.0
 11
51.03429674739192
 21
163.38543025811924
 31
0.0
  0
LINE
  5
7E
100
AcDbEntity
100
AcDbLine
  8
0-Datos
 62
92
420
42240
370
-1
  6
DASHED2
 10
101.03429674739195
 20
138.89053283028736
 30
0.0
 11
101.03429674739195
 21
163.38543025811924
 31
0.0
  0
LINE
  5
7F
100
AcDbEntity
100
AcDbLine
  8
0-Datos
 62
92
420
42240
370
-1
  6
DASHED2
 10
101.03429674739195
 20
138.89053283028736
 30
0.0
 11
111.03429674739201
 21
138.89053283028736
 31
0.0
  0
LINE
  5
80
100
AcDbEntity
100
AcDbLine
  8
0-Datos
 62
92
420
42240
370
-1
  6
CONTINUOUS
 10
51.03429674739192
 20
163.38543025811924
 30
0.0
 11
51.03429674739192
 21
173.89053283028733
 31
0.0
  0
LINE
  5
81
100
AcDbEntity
100
AcDbLine
  8
0-Datos
 62
92
420
42240
370
-1
  6
CONTINUOUS
 10
101.03429674739195
 20
163.38543025811924
 30
0.0
 11
101.03429674739195
 21
173.89053283028733
 31
0.0
  0
LINE
  5
82
100
AcDbEntity
100
AcDbLine
  8
0-Datos
 62
40
420
16760576
370
-1
  6
CONTINUOUS
 10
25.009032573572568
 20
128.8905328302873
 30
0.0
 11
-44.990967426427488
 21
128.8905328302873
 31
0.0
  0
LINE
  5
83
100
AcDbEntity
100
AcDbLine
  8
0-Datos
 62
40
420
16760576
370
-1
  6
CONTINUOUS
 10
-44.990967426427488
 20
128.8905328302873
 30
0.0
 11
-44.990967426427488
 21
173.89053283028733
 31
0.0
  0
LINE
  5
84
100
AcDbEntity
100
AcDbLine
  8
0-Datos
 62
40
420
16760576
370
-1
  6
CONTINUOUS
 10
-34.990967426427432
 20
138.89053283028736
 30
0.0
 11
-34.990967426427432
 21
173.89053283028733
 31
0.0
  0
LINE
  5
85
100
AcDbEntity
100
AcDbLine
  8
0-Datos
 62
40
420
16760576
370
-1
  6
CONTINUOUS
 10
25.009032573572568
 20
128.8905328302873
 30
0.0
 11
25.009032573572568
 21
173.89053283028733
 31
0.0
  0
LINE
  5
86
100
AcDbEntity
100
AcDbLine
  8
0-Datos
 62
40
420
16760576
370
-1
  6
DASHED2
 10
15.00903257357254
 20
128.8905328302873
 30
0.0
 11
15.00903257357254
 21
173.89053283028733
 31
0.0
  0
LINE
  5
87
100
AcDbEntity
100
AcDbLine
  8
0-Datos
 62
40
420
16760576
370
-1
  6
DASHED2
 10
-34.990967426427432
 20
163.89053283028738
 30
0.0
 11
-44.990967426427488
 21
163.89053283028738
 31
0.0
  0
LINE
  5
88
100
AcDbEntity
100
AcDbLine
  8
0-Datos
 62
142
420
31909
370
-1
  6
CONTINUOUS
 10
51.03429674739192
 20
61.294835921150494
 30
0.0
 11
41.03429674739192
 21
61.294835921150494
 31
0.0
  0
LINE
  5
89
100
AcDbEntity
100
AcDbLine
  8
0-Datos
 62
142
420
31909
370
-1
  6
CONTINUOUS
 10
111.03429674739201
 20
61.294835921150494
 30
0.0
 11
101.03429674739195
 21
61.294835921150494
 31
0.0
  0
LINE
  5
8A
100
AcDbEntity
100
AcDbLine
  8
0-Datos
 62
40
420
16760576
370
-1
  6
CONTINUOUS
 10
-34.990967426427432
 20
138.89053283028736
 30
0.0
 11
-9.9909674264274315
 21
173.89053283028733
 31
0.0
  0
LINE
  5
8B
100
AcDbEntity
100
AcDbLine
  8
0-Datos
 62
40
420
16760576
370
-1
  6
CONTINUOUS
 10
-34.990967426427432
 20
173.89053283028733
 30
0.0
 11
-44.990967426427488
 21
173.89053283028733
 31
0.0
  0
LINE
  5
8C
100
AcDbEntity
100
AcDbLine
  8
0-Datos
 62
40
420
16760576
370
-1
  6
CONTINUOUS
 10
25.009032573572568
 20
173.89053283028733
 30
0.0
 11
-9.9909674264274315
 21
173.89053283028733
 31
0.0
  0
ARC
  5
8D
100
AcDbEntity
  8
0-Datos
 62
92
420
42240
370
-1
  6
CONTINUOUS
100
AcDbCircle
 10
76.034296747391949
 20
138.89053283028736
 30
0.0
 40
34.999999999999929
100
AcDbArc
 50
0.0
 51
180.0
  0
LINE
  5
8E
100
AcDbEntity
100
AcDbLine
  8
1-Perpectiva
 62
256
370
-1
  6
ByLayer
 10
159.3261906097853
 20
51.534818550560232
 30
0.0
 11
159.3261906097853
 21
61.53481855056026
 31
0.0
  0
LINE
  5
8F
100
AcDbEntity
100
AcDbLine
  8
1-Perpectiva
 62
256
370
-1
  6
ByLayer
 10
169.32619060978519
 20
51.534818550560232
 30
0.0
 11
169.32619060978519
 21
61.53481855056026
 31
0.0
  0
LINE
  5
90
100
AcDbEntity
100
AcDbLine
  8
1-Perpectiva
 62
256
370
-1
  6
ByLayer
 10
219.32619060978541
 20
51.534818550560232
 30
0.0
 11
219.32619060978541
 21
61.53481855056026
 31
0.0
  0
LINE
  5
91
100
AcDbEntity
100
AcDbLine
  8
1-Perpectiva
 62
256
370
-1
  6
ByLayer
 10
229.32619060978541
 20
51.534818550560232
 30
0.0
 11
229.32619060978541
 21
61.53481855056026
 31
0.0
  0
LINE
  5
92
100
AcDbEntity
100
AcDbLine
  8
1-Perpectiva
 62
256
370
-1
  6
ByLayer
 10
232.86172451571809
 20
65.070352456492984
 30
0.0
 11
241.7005592805499
 21
108.9091872213247
 31
0.0
  0
ELLIPSE
  5
93
100
AcDbEntity
100
AcDbEllipse
  8
1-Perpectiva
 62
256
370
-1
  6
ByLayer
 10
206.70055928055001
 20
108.9091872213247
 30
0.0
 11
37.09609750766564
 21
4.5667382916549117
 31
0.0
 40
0.3100289792550433
 41
5.9052006019676266
 42
9.0467932555574233
  0
ELLIPSE
  5
94
100
AcDbEntity
100
AcDbEllipse
  8
1-Perpectiva
 62
256
370
-1
  6
ByLayer
 10
206.70055928055001
 20
108.9091872213247
 30
0.0
 11
26.49721250547546
 21
3.2619559226106518
 31
0.0
 40
0.3100289792550433
 41
5.9052006019676266
 42
9.0467932555574233
  0
LINE
  5
95
100
AcDbEntity
100
AcDbLine
  8
1-Perpectiva
 62
256
370
-1
  6
ByLayer
 10
231.7005592805499
 20
108.9091872213247
 30
0.0
 11
241.7005592805499
 21
108.9091872213246
 31
0.0
  0
LINE
  5
96
100
AcDbEntity
100
AcDbLine
  8
1-Perpectiva
 62
256
370
-1
  6
ByLayer
 10
231.7005592805499
 20
108.9091872213247
 30
0.0
 11
222.86172451571809
 21
65.070352456493026
 31
0.0
  0
LINE
  5
97
100
AcDbEntity
100
AcDbLine
  8
1-Perpectiva
 62
256
370
-1
  6
ByLayer
 10
181.7005592805499
 20
108.9091872213247
 30
0.0
 11
172.86172451571809
 21
65.070352456492984
 31
0.0
  0
LINE
  5
98
100
AcDbEntity
100
AcDbLine
  8
1-Perpectiva
 62
256
370
-1
  6
ByLayer
 10
171.7005592805499
 20
108.9091872213247
 30
0.0
 11
162.86172451571809
 21
65.070352456492984
 31
0.0
  0
LINE
  5
99
100
AcDbEntity
100
AcDbLine
  8
1-Perpectiva
 62
256
370
-1
  6
ByLayer
 10
181.7005592805499
 20
108.9091872213247
 30
0.0
 11
171.7005592805499
 21
108.9091872213247
 31
0.0
  0
LINE
  5
9A
100
AcDbEntity
100
AcDbLine
  8
1-Perpectiva
 62
256
370
-1
  6
ByLayer
 10
222.86172451571809
 20
65.070352456492984
 30
0.0
 11
232.86172451571809
 21
65.070352456492984
 31
0.0
  0
LINE
  5
9B
100
AcDbEntity
100
AcDbLine
  8
1-Perpectiva
 62
256
370
-1
  6
ByLayer
 10
229.32619060978541
 20
51.53481855056021
 30
0.0
 11
241.7005592805499
 21
63.909187221324821
 31
0.0
  0
LINE
  5
9C
100
AcDbEntity
100
AcDbLine
  8
1-Perpectiva
 62
256
370
-1
  6
ByLayer
 10
229.32619060978541
 20
51.53481855056021
 30
0.0
 11
219.32619060978541
 21
51.53481855056021
 31
0.0
  0
LINE
  5
9D
100
AcDbEntity
100
AcDbLine
  8
1-Perpectiva
 62
256
370
-1
  6
ByLayer
 10
169.32619060978519
 20
51.534818550560232
 30
0.0
 11
159.3261906097853
 21
51.534818550560232
 31
0.0
  0
LINE
  5
9E
100
AcDbEntity
100
AcDbLine
  8
1-Perpectiva
 62
256
370
-1
  6
ByLayer
 10
169.32619060978519
 20
51.534818550560253
 30
0.0
 11
181.7005592805499
 21
63.909187221324842
 31
0.0
  0
LINE
  5
9F
100
AcDbEntity
100
AcDbLine
  8
1-Perpectiva
 62
256
370
-1
  6
ByLayer
 10
243.8236652928434
 20
68.033977880079107
 30
0.0
 11
243.8236652928434
 21
113.0339783961831
 31
0.0
  0
LINE
  5
A0
100
AcDbEntity
100
AcDbLine
  8
1-Perpectiva
 62
256
370
-1
  6
ByLayer
 10
172.86172451571809
 20
65.070352456492941
 30
0.0
 11
162.86172451571809
 21
65.070352456492984
 31
0.0
  0
LINE
  5
A1
100
AcDbEntity
100
AcDbLine
  8
1-Perpectiva
 62
256
370
-1
  6
ByLayer
 10
159.3261906097853
 20
51.534818550560232
 30
0.0
 11
171.7005592805501
 21
63.909187221324821
 31
0.0
  0
LINE
  5
A2
100
AcDbEntity
100
AcDbLine
  8
1-Perpectiva
 62
256
370
-1
  6
ByLayer
 10
219.32619060978541
 20
51.53481855056021
 30
0.0
 11
231.70055928055001
 21
63.9091872213248
 31
0.0
  0
ELLIPSE
  5
A3
100
AcDbEntity
100
AcDbEllipse
  8
1-Perpectiva
 62
256
370
-1
  6
ByLayer
 10
206.70055928054981
 20
63.909187221324821
 30
0.0
 11
26.49721250547546
 21
3.2619559226106518
 31
0.0
 40
0.3100289792550433
 41
1.1469979820151059
 42
2.7636079483778349
  0
ELLIPSE
  5
A4
100
AcDbEntity
100
AcDbEllipse
  8
1-Perpectiva
 62
256
370
-1
  6
ByLayer
 10
206.70055928054981
 20
63.909187221324821
 30
0.0
 11
26.49721250547546
 21
3.2619559226106518
 31
0.0
 40
0.3100289792550433
 41
5.9052006019676266
 42
7.4301832891946891
  0
ARC
  5
A5
100
AcDbEntity
  8
1-Perpectiva
 62
256
370
-1
  6
ByLayer
100
AcDbCircle
 10
194.32619060978541
 20
61.53481855056026
 30
0.0
 40
35.000000000000028
100
AcDbArc
 50
0.0
 51
180.0
  0
ARC
  5
A6
100
AcDbEntity
  8
1-Perpectiva
 62
256
370
-1
  6
ByLayer
100
AcDbCircle
 10
197.86172451571809
 20
65.070352456492984
 30
0.0
 40
35.000000000000028
100
AcDbArc
 50
0.0
 51
180.0
  0
ARC
  5
A7
100
AcDbEntity
  8
1-Perpectiva
 62
256
370
-1
  6
ByLayer
100
AcDbCircle
 10
194.3261906097853
 20
61.53481855056026
 30
0.0
 40
25.00000000000005
100
AcDbArc
 50
0.0
 51
180.0
  0
ARC
  5
A8
100
AcDbEntity
  8
1-Perpectiva
 62
256
370
-1
  6
ByLayer
100
AcDbCircle
 10
197.86172451571809
 20
65.070352456492984
 30
0.0
 40
25.00000000000005
100
AcDbArc
 50
0.0
 51
180.0
  0
LINE
  5
A9
100
AcDbEntity
100
AcDbLine
  8
1-Perpectiva
 62
256
370
-1
  6
ByLayer
 10
173.11298717418919
 20
89.819089798022404
 30
0.0
 11
169.57745326825639
 21
86.28355589208968
 31
0.0
  0
LINE
  5
AA
100
AcDbEntity
100
AcDbLine
  8
1-Perpectiva
 62
256
370
-1
  6
ByLayer
 10
180.18405498605449
 20
82.748021986156857
 30
0.0
 11
176.6485210801217
 21
79.212488080224148
 31
0.0
  0
ELLIPSE
  5
AB
100
AcDbEntity
100
AcDbEllipse
  8
1-Perpectiva
 62
256
370
-1
  6
ByLayer
 10
206.70055928054981
 20
63.909187221324821
 30
0.0
 11
37.09609750766564
 21
4.5667382916549117
 31
0.0
 40
0.3100289792550433
 41
5.9052006019676329
 42
9.0467932555574233
  0
ENDSEC
  0
SECTION
  2
OBJECTS
  0
DICTIONARY
  5
C
100
AcDbDictionary
280
0
281
1
  3
ACAD_GROUP
350
D
  3
ACAD_LAYOUT
350
1A
  3
ACAD_MLINESTYLE
350
17
  3
ACAD_PLOTSETTINGS
350
19
  3
ACAD_PLOTSTYLENAME
350
E
  3
AcDbVariableDictionary
350
AC
  0
DICTIONARY
  5
D
100
AcDbDictionary
280
0
281
1
  0
ACDBDICTIONARYWDFLT
  5
E
100
AcDbDictionary
281
1
  3
Normal
350
F
100
AcDbDictionaryWithDefault
340
F
  0
ACDBPLACEHOLDER
  5
F
  0
DICTIONARY
  5
17
100
AcDbDictionary
280
0
281
1
  3
Standard
350
18
  0
MLINESTYLE
  5
18
100
AcDbMlineStyle
  2
STANDARD
 70
0
  3

 62
256
 51
90.0
 52
90.0
 71
2
 49
0.5
 62
256
  6
BYLAYER
 49
-0.5
 62
256
  6
BYLAYER
  0
DICTIONARY
  5
19
100
AcDbDictionary
280
0
281
1
  0
DICTIONARY
  5
1A
100
AcDbDictionary
281
1
  3
Layout1
350
1E
  3
Layout2
350
26
  3
Model
350
22
  0
LAYOUT
  5
1E
100
AcDbPlotSettings
  1

  2
C:\Program Files\AutoCAD 2002\plotters\DWF ePlot (optimized for plotting).pc3
  4

  6

 40
0.0
 41
0.0
 42
0.0
 43
0.0
 44
0.0
 45
0.0
 46
0.0
 47
0.0
 48
0.0
 49
0.0
140
0.0
141
0.0
142
1.0
143
1.0
 70
688
 72
0
 73
0
 74
5
  7

 75
16
147
1.0
148
0.0
149
0.0
100
AcDbLayout
  1
Layout1
 70
1
 71
1
 10
0.0
 20
0.0
 11
420.0
 21
297.0
 12
0.0
 22
0.0
 32
0.0
 14
100000000000000000000.0
 24
100000000000000000000.0
 34
100000000000000000000.0
 15
-100000000000000000000.0
 25
-100000000000000000000.0
 35
-100000000000000000000.0
146
0.0
 13
0.0
 23
0.0
 33
0.0
 16
1.0
 26
0.0
 36
0.0
 17
0.0
 27
1.0
 37
0.0
 76
0
330
1B
  0
LAYOUT
  5
22
100
AcDbPlotSettings
  1

  2
C:\Program Files\AutoCAD 2002\plotters\DWF ePlot (optimized for plotting).pc3
  4

  6

 40
0.0
 41
0.0
 42
0.0
 43
0.0
 44
0.0
 45
0.0
 46
0.0
 47
0.0
 48
0.0
 49
0.0
140
0.0
141
0.0
142
1.0
143
1.0
 70
1712
 72
0
 73
0
 74
0
  7

 75
0
147
1.0
148
0.0
149
0.0
100
AcDbLayout
  1
Model
 70
1
 71
0
 10
0.0
 20
0.0
 11
12.0
 21
9.0
 12
0.0
 22
0.0
 32
0.0
 14
0.0
 24
0.0
 34
0.0
 15
0.0
 25
0.0
 35
0.0
146
0.0
 13
0.0
 23
0.0
 33
0.0
 16
1.0
 26
0.0
 36
0.0
 17
0.0
 27
1.0
 37
0.0
 76
0
330
1F
  0
LAYOUT
  5
26
100
AcDbPlotSettings
  1

  2
C:\Program Files\AutoCAD 2002\plotters\DWF ePlot (optimized for plotting).pc3
  4

  6

 40
0.0
 41
0.0
 42
0.0
 43
0.0
 44
0.0
 45
0.0
 46
0.0
 47
0.0
 48
0.0
 49
0.0
140
0.0
141
0.0
142
1.0
143
1.0
 70
688
 72
0
 73
0
 74
5
  7

 75
16
147
1.0
148
0.0
149
0.0
100
AcDbLayout
  1
Layout2
 70
1
 71
2
 10
0.0
 20
0.0
 11
12.0
 21
9.0
 12
0.0
 22
0.0
 32
0.0
 14
0.0
 24
0.0
 34
0.0
 15
0.0
 25
0.0
 35
0.0
146
0.0
 13
0.0
 23
0.0
 33
0.0
 16
1.0
 26
0.0
 36
0.0
 17
0.0
 27
1.0
 37
0.0
 76
0
330
23
  0
DICTIONARY
  5
AC
100
AcDbDictionary
281
1
  3
DIMASSOC
350
AE
  3
HIDETEXT
350
AD
  0
DICTIONARYVAR
  5
AD
100
DictionaryVariables
280
0
  1
2
  0
DICTIONARYVAR
  5
AE
100
DictionaryVariables
280
0
  1
1
  0
ENDSEC
  0
EOF
