999
dxflib 2.2.0.0
  0
SECTION
  2
HEADER
  9
$ACADVER
  1
AC1015
  9
$HANDSEED
  5
FFFF
  9
$OBSCOLOR
 70
257
  9
$DIMLIM
 70
0
  9
$DIMLUNIT
 70
2
  9
$DIMTIX
 70
0
  9
$AUNITS
 70
0
  9
$QTEXTMODE
 70
0
  9
$USERR1
 40
0.0
  9
$DIMALTU
 70
2
  9
$USERR2
 40
0.0
  9
$UCSORGBOTTOM
 10
0.0
 20
0.0
 30
0.0
  9
$USERR3
 40
0.0
  9
$USERR4
 40
0.0
  9
$USERR5
 40
0.0
  9
$LIMMAX
 10
16.535433070866141
 20
11.69291338582677
  9
$PELEVATION
 40
0.0
  9
$DIMALTZ
 70
0
  9
$DIMADEC
 70
2
  9
$JOINSTYLE
280
0
  9
$TILEMODE
 70
1
  9
$DIMATFIT
 70
3
  9
$PEXTMIN
 10
100000000000000000000.0
 20
100000000000000000000.0
 30
100000000000000000000.0
  9
$TDUSRTIMER
 40
0.000000544
  9
$DWGCODEPAGE
  3
ANSI_1252
  9
$SORTENTS
280
127
  9
$UCSORTHOVIEW
 70
0
  9
$DIMSOXD
 70
0
  9
$DIMTZIN
 70
0
  9
$SPLINETYPE
 70
6
  9
$DIMLFAC
 40
1.0
  9
$DIMSE1
 70
0
  9
$FILLETRAD
 40
4.9999999999999991
  9
$DIMSE2
 70
0
  9
$PSTYLEMODE
290
1
  9
$TEXTSTYLE
  7
Standard
  9
$DIMTSZ
 40
0.0
  9
$PUCSXDIR
 10
1.0
 20
0.0
 30
0.0
  9
$XCLIPFRAME
290
0
  9
$DIMTXSTY
  7
Standard
  9
$PLIMMAX
 10
297.0
 20
210.0
  9
$DIMTM
 40
0.0
  9
$UCSORG
 10
0.0
 20
0.0
 30
0.0
  9
$DIMTP
 40
0.0
  9
$PSLTSCALE
 70
1
  9
$EXTNAMES
290
1
  9
$ANGBASE
 50
0.0
  9
$PUCSYDIR
 10
0.0
 20
1.0
 30
0.0
  9
$DIMASZ
 40
3.0
  9
$PUCSORTHOVIEW
 70
0
  9
$UNITMODE
 70
0
  9
$INDEXCTL
280
0
  9
$MEASUREMENT
 70
1
  9
$INSBASE
 10
0.0
 20
0.0
 30
0.0
  9
$EXTMAX
 10
462.3987943688943
 20
289.57335675524422
 30
6.0986579432463834
  9
$ELEVATION
 40
0.0
  9
$TDCREATE
 40
2456233.8747044681
  9
$DIMDEC
 70
2
  9
$CELTYPE
  6
ByLayer
  9
$GRIDUNIT
 10
0.0
 20
0.0
  9
$MENU
  1
.
  9
$ANGDIR
 70
0
  9
$DIMALTTD
 70
2
  9
$TREEDEPTH
 70
3020
  9
$PROXYGRAPHICS
 70
1
  9
$LTSCALE
 40
1.0
  9
$DIMTMOVE
 70
0
  9
$DIMAZIN
 70
8
  9
$TDUPDATE
 40
2456233.8747044681
  9
$DIMTOLJ
 70
1
  9
$DIMCEN
 40
0.09
  9
$DIMTVP
 40
0.0
  9
$TRACEWID
 40
0.05
  9
$CMLSTYLE
  2
Standard
  9
$DISPSILH
 70
0
  9
$DIMSTYLE
  2
Standard
  9
$SKETCHINC
 40
0.1
  9
$FILLMODE
 70
1
  9
$PLINEGEN
 70
0
  9
$DIMLWD
 70
-2
  9
$THICKNESS
 40
0.0
  9
$PUCSORG
 10
0.0
 20
0.0
 30
0.0
  9
$DIMLWE
 70
-2
  9
$CELTSCALE
 40
1.0
  9
$DIMALTTZ
 70
0
  9
$INSUNITS
 70
0
  9
$UCSORGBACK
 10
0.0
 20
0.0
 30
0.0
  9
$PLINEWID
 40
0.0
  9
$PEXTMAX
 10
-100000000000000000000.0
 20
-100000000000000000000.0
 30
-100000000000000000000.0
  9
$DIMJUST
 70
0
  9
$DIMASSOC
280
2
  9
$UCSYDIR
 10
0.0
 20
1.0
 30
0.0
  9
$PUCSORGBACK
 10
0.0
 20
0.0
 30
0.0
  9
$GRIDMODE
 70
0
  9
$PUCSORGBOTTOM
 10
0.0
 20
0.0
 30
0.0
  9
$PDSIZE
 40
0.0
  9
$DIMUPT
 70
0
  9
$DIMTAD
 70
0
  9
$MAXACTVP
 70
64
  9
$UCSXDIR
 10
1.0
 20
0.0
 30
0.0
  9
$DIMSAH
 70
0
  9
$HALOGAP
280
0
  9
$TDUCREATE
 40
2456233.8330378011
  9
$DIMFRAC
 70
0
  9
$USERI1
 70
0
  9
$USERI2
 70
0
  9
$CELWEIGHT
370
-1
  9
$USERI3
 70
0
  9
$UCSORGRIGHT
 10
0.0
 20
0.0
 30
0.0
  9
$LWDISPLAY
290
0
  9
$SKPOLY
 70
0
  9
$USERI4
 70
0
  9
$USERI5
 70
0
  9
$UCSORGTOP
 10
0.0
 20
0.0
 30
0.0
  9
$LIMMIN
 10
0.0
 20
0.0
  9
$ACADMAINTVER
 70
39
  9
$MIRRTEXT
 70
0
  9
$TDUUPDATE
 40
2456233.8330378011
  9
$TEXTSIZE
 40
3.9999999999999991
  9
$DIMGAP
 40
0.75
  9
$LUPREC
 70
2
  9
$CECOLOR
 62
250
  9
$DIMSD1
 70
0
  9
$DIMSD2
 70
0
  9
$WORLDVIEW
 70
1
  9
$PUCSORGRIGHT
 10
0.0
 20
0.0
 30
0.0
  9
$PLIMCHECK
 70
0
  9
$DIMTFAC
 40
1.0
  9
$CMLJUST
 70
0
  9
$USRTIMER
 70
1
  9
$SURFU
 70
6
  9
$SURFV
 70
6
  9
$DIMASO
 70
1
  9
$DIMDLE
 40
0.0
  9
$EXTMIN
 10
6.0986579432463621
 20
15.30524206973287
 30
-0.00000001
  9
$UCSORGLEFT
 10
0.0
 20
0.0
 30
0.0
  9
$OLESTARTUP
290
0
  9
$PUCSORGFRONT
 10
0.0
 20
0.0
 30
0.0
  9
$DIMDLI
 40
0.38
  9
$LUNITS
 70
2
  9
$DIMCLRD
 70
0
  9
$SHADEDIF
 70
70
  9
$DIMCLRE
 70
0
  9
$SPLINESEGS
 70
8
  9
$PUCSORGLEFT
 10
0.0
 20
0.0
 30
0.0
  9
$INTERSECTIONDISPLAY
280
0
  9
$DIMALTRND
 40
0.0
  9
$DIMRND
 40
0.0
  9
$DIMALT
 70
0
  9
$FINGERPRINTGUID
  2
{9C69DCBE-CE4D-46A6-881B-08E8605BF848}
  9
$DIMCLRT
 70
0
  9
$PUCSORGTOP
 10
0.0
 20
0.0
 30
0.0
  9
$OBSLTYPE
280
0
  9
$DIMTOH
 70
1
  9
$UCSORGFRONT
 10
0.0
 20
0.0
 30
0.0
  9
$VISRETAIN
 70
1
  9
$SHADEDGE
 70
3
  9
$DIMTOL
 70
0
  9
$SURFTYPE
 70
6
  9
$VERSIONGUID
  2
{0801B9ED-6B0C-46D3-A414-7DA139C2F14B}
  9
$CHAMFERA
 40
4.9999999999999991
  9
$SURFTAB1
 70
6
  9
$CHAMFERB
 40
4.9999999999999991
  9
$SURFTAB2
 70
6
  9
$CHAMFERC
 40
0.0
  9
$AUPREC
 70
2
  9
$CHAMFERD
 40
0.0
  9
$DIMTDEC
 70
4
  9
$PDMODE
 70
0
  9
$PLIMMIN
 10
0.0
 20
0.0
  9
$SPLFRAME
 70
0
  9
$XEDIT
290
1
  9
$DIMDSEP
 70
46
  9
$LIMCHECK
 70
0
  9
$PINSBASE
 10
59.3397352430556
 20
50.438774956597243
 30
0.0
  9
$ORTHOMODE
 70
0
  9
$PSVPSCALE
 40
0.5
  9
$CLAYER
  8
0
  9
$DIMSHO
 70
1
  9
$DIMTOFL
 70
0
  9
$DIMTXT
 40
3.0
  9
$DIMEXE
 40
1.5
  9
$TDINDWG
 40
0.000000544
  9
$REGENMODE
 70
1
  9
$ATTMODE
 70
1
  9
$CMLSCALE
 40
1.0
  9
$DIMTIH
 70
1
  9
$DIMZIN
 70
8
  9
$CEPSNTYPE
380
0
  9
$HIDETEXT
280
1
  9
$DIMSCALE
 40
1.0
  9
$INTERSECTIONCOLOR
 70
257
  9
$DIMALTD
 70
2
  9
$DIMAUNIT
 70
0
  9
$DIMEXO
 40
0.75
  9
$DIMALTF
 40
25.399999999999999
  9
$ENDCAPS
280
0
  9
$CLAYER
  8
1-Perspectiva
  0
ENDSEC
  0
SECTION
  2
TABLES
  0
TABLE
  2
VPORT
  5
8
100
AcDbSymbolTable
 70
1
  0
VPORT
  5
30
100
AcDbSymbolTableRecord
100
AcDbViewportTableRecord
  2
*Active
 70
0
 10
0.0
 20
0.0
 11
1.0
 21
1.0
 12
286.30555555555549
 22
148.5
 13
0.0
 23
0.0
 14
10.0
 24
10.0
 15
10.0
 25
10.0
 16
0.0
 26
0.0
 36
1.0
 17
0.0
 27
0.0
 37
0.0
 40
297.0
 41
1.92798353909465
 42
50.0
 43
0.0
 44
0.0
 50
0.0
 51
0.0
 71
0
 72
100
 73
1
 74
3
 75
1
 76
1
 77
0
 78
0
281
0
 65
1
110
0.0
120
0.0
130
0.0
111
1.0
121
0.0
131
0.0
112
0.0
122
1.0
132
0.0
 79
0
146
0.0
  0
ENDTAB
  0
TABLE
  2
LTYPE
  5
5
100
AcDbSymbolTable
 70
21
  0
LTYPE
  5
14
100
AcDbSymbolTableRecord
100
AcDbLinetypeTableRecord
  2
ByBlock
 70
0
  3

 72
65
 73
0
 40
0.0
  0
LTYPE
  5
15
100
AcDbSymbolTableRecord
100
AcDbLinetypeTableRecord
  2
ByLayer
 70
0
  3

 72
65
 73
0
 40
0.0
  0
LTYPE
  5
16
100
AcDbSymbolTableRecord
100
AcDbLinetypeTableRecord
  2
CONTINUOUS
 70
0
  3
Solid line
 72
65
 73
0
 40
0.0
  0
LTYPE
  5
31
100
AcDbSymbolTableRecord
100
AcDbLinetypeTableRecord
  2
DOT
 70
0
  3
Dot . . . . . . . . . . . . . . . . . . . . . .
 72
65
 73
2
 40
6.3499999999999996
 49
0.0
 74
0
 49
-6.3499999999999996
 74
0
  0
LTYPE
  5
32
100
AcDbSymbolTableRecord
100
AcDbLinetypeTableRecord
  2
DOT2
 70
0
  3
Dot (.5x) .....................................
 72
65
 73
2
 40
3.1749999999999998
 49
0.0
 74
0
 49
-3.1749999999999998
 74
0
  0
LTYPE
  5
33
100
AcDbSymbolTableRecord
100
AcDbLinetypeTableRecord
  2
DOTX2
 70
0
  3
Dot (2x) .  .  .  .  .  .  .  .  .  .  .  .  .
 72
65
 73
2
 40
12.699999999999999
 49
0.0
 74
0
 49
-12.699999999999999
 74
0
  0
LTYPE
  5
34
100
AcDbSymbolTableRecord
100
AcDbLinetypeTableRecord
  2
DASHED
 70
0
  3
Dashed __ __ __ __ __ __ __ __ __ __ __ __ __ _
 72
65
 73
2
 40
19.050000000000001
 49
12.699999999999999
 74
0
 49
-6.3499999999999996
 74
0
  0
LTYPE
  5
35
100
AcDbSymbolTableRecord
100
AcDbLinetypeTableRecord
  2
DASHED2
 70
0
  3
Dashed (.5x) _ _ _ _ _ _ _ _ _ _ _ _ _ _ _ _ _
 72
65
 73
2
 40
9.5250000000000004
 49
6.3499999999999996
 74
0
 49
-3.1749999999999998
 74
0
  0
LTYPE
  5
36
100
AcDbSymbolTableRecord
100
AcDbLinetypeTableRecord
  2
DASHEDX2
 70
0
  3
Dashed (2x) ____  ____  ____  ____  ____  ___
 72
65
 73
2
 40
38.100000000000001
 49
25.399999999999999
 74
0
 49
-12.699999999999999
 74
0
  0
LTYPE
  5
37
100
AcDbSymbolTableRecord
100
AcDbLinetypeTableRecord
  2
DASHDOT
 70
0
  3
Dash dot __ . __ . __ . __ . __ . __ . __ . __
 72
65
 73
4
 40
25.399999999999999
 49
12.699999999999999
 74
0
 49
-6.3499999999999996
 74
0
 49
0.0
 74
0
 49
-6.3499999999999996
 74
0
  0
LTYPE
  5
38
100
AcDbSymbolTableRecord
100
AcDbLinetypeTableRecord
  2
DASHDOT2
 70
0
  3
Dash dot (.5x) _._._._._._._._._._._._._._._.
 72
65
 73
4
 40
12.699999999999999
 49
6.3499999999999996
 74
0
 49
-3.1749999999999998
 74
0
 49
0.0
 74
0
 49
-3.1749999999999998
 74
0
  0
LTYPE
  5
39
100
AcDbSymbolTableRecord
100
AcDbLinetypeTableRecord
  2
DASHDOTX2
 70
0
  3
Dash dot (2x) ____  .  ____  .  ____  .  ___
 72
65
 73
4
 40
50.799999999999997
 49
25.399999999999999
 74
0
 49
-12.699999999999999
 74
0
 49
0.0
 74
0
 49
-12.699999999999999
 74
0
  0
LTYPE
  5
3A
100
AcDbSymbolTableRecord
100
AcDbLinetypeTableRecord
  2
DIVIDE
 70
0
  3
Divide ____ . . ____ . . ____ . . ____ . . ____
 72
65
 73
6
 40
31.75
 49
12.699999999999999
 74
0
 49
-6.3499999999999996
 74
0
 49
0.0
 74
0
 49
-6.3499999999999996
 74
0
 49
0.0
 74
0
 49
-6.3499999999999996
 74
0
  0
LTYPE
  5
3B
100
AcDbSymbolTableRecord
100
AcDbLinetypeTableRecord
  2
DIVIDE2
 70
0
  3
Divide (.5x) __..__..__..__..__..__..__..__.._
 72
65
 73
6
 40
15.875
 49
6.3499999999999996
 74
0
 49
-3.1749999999999998
 74
0
 49
0.0
 74
0
 49
-3.1749999999999998
 74
0
 49
0.0
 74
0
 49
-3.1749999999999998
 74
0
  0
LTYPE
  5
3C
100
AcDbSymbolTableRecord
100
AcDbLinetypeTableRecord
  2
DIVIDEX2
 70
0
  3
Divide (2x) ________  .  .  ________  .  .  _
 72
65
 73
6
 40
63.5
 49
25.399999999999999
 74
0
 49
-12.699999999999999
 74
0
 49
0.0
 74
0
 49
-12.699999999999999
 74
0
 49
0.0
 74
0
 49
-12.699999999999999
 74
0
  0
LTYPE
  5
3D
100
AcDbSymbolTableRecord
100
AcDbLinetypeTableRecord
  2
CENTER
 70
0
  3
Center ____ _ ____ _ ____ _ ____ _ ____ _ ____
 72
65
 73
4
 40
50.799999999999997
 49
31.75
 74
0
 49
-6.3499999999999996
 74
0
 49
6.3499999999999996
 74
0
 49
-6.3499999999999996
 74
0
  0
LTYPE
  5
3E
100
AcDbSymbolTableRecord
100
AcDbLinetypeTableRecord
  2
CENTER2
 70
0
  3
Center (.5x) ___ _ ___ _ ___ _ ___ _ ___ _ ___
 72
65
 73
4
 40
28.574999999999999
 49
19.050000000000001
 74
0
 49
-3.1749999999999998
 74
0
 49
3.1749999999999998
 74
0
 49
-3.1749999999999998
 74
0
  0
LTYPE
  5
3F
100
AcDbSymbolTableRecord
100
AcDbLinetypeTableRecord
  2
CENTERX2
 70
0
  3
Center (2x) ________  __  ________  __  _____
 72
65
 73
4
 40
101.59999999999999
 49
63.5
 74
0
 49
-12.699999999999999
 74
0
 49
12.699999999999999
 74
0
 49
-12.699999999999999
 74
0
  0
LTYPE
  5
40
100
AcDbSymbolTableRecord
100
AcDbLinetypeTableRecord
  2
BORDER
 70
0
  3
Border __ __ . __ __ . __ __ . __ __ . __ __ .
 72
65
 73
6
 40
44.450000000000003
 49
12.699999999999999
 74
0
 49
-6.3499999999999996
 74
0
 49
12.699999999999999
 74
0
 49
-6.3499999999999996
 74
0
 49
0.0
 74
0
 49
-6.3499999999999996
 74
0
  0
LTYPE
  5
41
100
AcDbSymbolTableRecord
100
AcDbLinetypeTableRecord
  2
BORDER2
 70
0
  3
Border (.5x) __.__.__.__.__.__.__.__.__.__.__.
 72
65
 73
6
 40
22.225000000000001
 49
6.3499999999999996
 74
0
 49
-3.1749999999999998
 74
0
 49
6.3499999999999996
 74
0
 49
-3.1749999999999998
 74
0
 49
0.0
 74
0
 49
-3.1749999999999998
 74
0
  0
LTYPE
  5
42
100
AcDbSymbolTableRecord
100
AcDbLinetypeTableRecord
  2
BORDERX2
 70
0
  3
Border (2x) ____  ____  .  ____  ____  .  ___
 72
65
 73
6
 40
88.900000000000006
 49
25.399999999999999
 74
0
 49
-12.699999999999999
 74
0
 49
25.399999999999999
 74
0
 49
-12.699999999999999
 74
0
 49
0.0
 74
0
 49
-12.699999999999999
 74
0
  0
ENDTAB
  0
TABLE
  2
LAYER
  5
2
100
AcDbSymbolTable
 70
3
  0
LAYER
  5
10
100
AcDbSymbolTableRecord
100
AcDbLayerTableRecord
  2
0
 70
0
 62
7
420
0
  6
DASHDOT2
370
-3
390
F
  0
LAYER
  5
43
100
AcDbSymbolTableRecord
100
AcDbLayerTableRecord
  2
1-Perspectiva
 70
0
 62
1
420
16711680
  6
CONTINUOUS
370
-3
390
F
  0
LAYER
  5
44
100
AcDbSymbolTableRecord
100
AcDbLayerTableRecord
  2
0-Datos
 70
0
 62
7
420
0
  6
CONTINUOUS
370
0
390
F
  0
ENDTAB
  0
TABLE
  2
STYLE
  5
3
100
AcDbSymbolTable
 70
1
  0
STYLE
  5
11
100
AcDbSymbolTableRecord
100
AcDbTextStyleTableRecord
  2
Standard
 70
0
 40
0.0
 41
0.75
 50
0.0
 71
0
 42
2.5
  3
txt
  4

  0
ENDTAB
  0
TABLE
  2
VIEW
  5
6
100
AcDbSymbolTable
 70
0
  0
ENDTAB
  0
TABLE
  2
UCS
  5
7
100
AcDbSymbolTable
 70
0
  0
ENDTAB
  0
TABLE
  2
APPID
  5
9
100
AcDbSymbolTable
 70
1
  0
APPID
  5
12
100
AcDbSymbolTableRecord
100
AcDbRegAppTableRecord
  2
ACAD
 70
0
  0
ENDTAB
  0
TABLE
  2
DIMSTYLE
  5
A
100
AcDbSymbolTable
 70
1
100
AcDbDimStyleTable
 71
0
  0
DIMSTYLE
105
27
100
AcDbSymbolTableRecord
100
AcDbDimStyleTableRecord
  2
Standard
 41
3.0
 42
0.75
 43
3.75
 44
1.5
 70
0
 73
0
 74
0
 77
1
 78
8
140
3.0
141
2.5
143
0.03937007874016
147
0.75
171
3
172
1
271
2
272
2
274
3
278
44
283
0
284
8
340
11
  0
ENDTAB
  0
TABLE
  2
BLOCK_RECORD
  5
1
100
AcDbSymbolTable
 70
1
  0
BLOCK_RECORD
  5
1F
100
AcDbSymbolTableRecord
100
AcDbBlockTableRecord
  2
*Model_Space
340
22
  0
BLOCK_RECORD
  5
1B
100
AcDbSymbolTableRecord
100
AcDbBlockTableRecord
  2
*Paper_Space
340
1E
  0
BLOCK_RECORD
  5
23
100
AcDbSymbolTableRecord
100
AcDbBlockTableRecord
  2
*Paper_Space0
340
26
  0
BLOCK_RECORD
  5
45
100
AcDbSymbolTableRecord
100
AcDbBlockTableRecord
  2
LONGARROW
340
0
  0
ENDTAB
  0
ENDSEC
  0
SECTION
  2
BLOCKS
  0
BLOCK
  5
20
100
AcDbEntity
  8
0
100
AcDbBlockBegin
  2
*Model_Space
 70
0
 10
0.0
 20
0.0
 30
0.0
  3
*Model_Space
  1

  0
ENDBLK
  5
21
100
AcDbEntity
  8
0
100
AcDbBlockEnd
  0
BLOCK
  5
1C
100
AcDbEntity
 67
1
  8
0
100
AcDbBlockBegin
  2
*Paper_Space
 70
0
 10
0.0
 20
0.0
 30
0.0
  3
*Paper_Space
  1

  0
ENDBLK
  5
1D
100
AcDbEntity
 67
1
  8
0
100
AcDbBlockEnd
  0
BLOCK
  5
24
100
AcDbEntity
  8
0
100
AcDbBlockBegin
  2
*Paper_Space0
 70
0
 10
0.0
 20
0.0
 30
0.0
  3
*Paper_Space0
  1

  0
ENDBLK
  5
25
100
AcDbEntity
  8
0
100
AcDbBlockEnd
  0
BLOCK
  5
46
100
AcDbEntity
  8
0
100
AcDbBlockBegin
  2
LONGARROW
 70
0
 10
0.0
 20
0.0
 30
0.0
  3
LONGARROW
  1

  0
ENDBLK
  5
47
100
AcDbEntity
  8
0
100
AcDbBlockEnd
  0
ENDSEC
  0
SECTION
  2
ENTITIES
  0
MTEXT
  5
48
100
AcDbEntity
100
AcDbMText
  8
0
 62
256
370
-1
  6
CONTINUOUS
 10
212.32215276290231
 20
22.72883588930269
 30
0.0
 40
6.0
 41
100.0
 71
7
 72
2
  1
Y
  7
ARIAL
 50
0.0
 73
0
 44
1.0
  0
MTEXT
  5
49
100
AcDbEntity
100
AcDbMText
  8
0
 62
256
370
-1
  6
CONTINUOUS
 10
380.23775013604802
 20
67.384935557807907
 30
0.0
 40
6.0
 41
100.0
 71
7
 72
2
  1
X
  7
ARIAL
 50
0.0
 73
0
 44
1.0
  0
MTEXT
  5
4A
100
AcDbEntity
100
AcDbMText
  8
0
 62
256
370
-1
  6
CONTINUOUS
 10
258.89219575284358
 20
256.69876185366348
 30
0.0
 40
6.0
 41
100.0
 71
7
 72
2
  1
Z
  7
ARIAL
 50
0.0
 73
0
 44
1.0
  0
LINE
  5
4B
100
AcDbEntity
100
AcDbLine
  8
0
 62
256
370
-1
  6
ByLayer
 10
109.33093422861242
 20
68.477369002360746
 30
0.0
 11
109.33093422861242
 21
-30.522630997639226
 31
0.0
  0
LINE
  5
4C
100
AcDbEntity
100
AcDbLine
  8
0
 62
256
370
-1
  6
ByLayer
 10
63.955934228612449
 20
217.58267139606761
 30
0.0
 11
154.70593422861239
 21
217.58267139606761
 31
0.0
  0
LINE
  5
4D
100
AcDbEntity
100
AcDbLine
  8
0
 62
256
370
-1
  6
ByLayer
 10
42.725631834905613
 20
217.58267139606761
 30
0.0
 11
-56.27436816509433
 21
217.58267139606761
 31
0.0
  0
LINE
  5
4E
100
AcDbEntity
100
AcDbLine
  8
0
 62
256
370
-1
  6
ByLayer
 10
-56.27436816509433
 20
127.58267139606744
 30
0.0
 11
42.725631834905613
 21
127.58267139606744
 31
0.0
  0
LINE
  5
4F
100
AcDbEntity
100
AcDbLine
  8
0
 62
256
370
-1
  6
ByLayer
 10
51.580934228612421
 20
18.977369002360774
 30
0.0
 11
167.08093422861239
 21
18.977369002360774
 31
0.0
  0
LINE
  5
50
100
AcDbEntity
100
AcDbLine
  8
0
 62
256
370
-1
  6
ByLayer
 10
109.33093422861242
 20
73.95767139606744
 30
0.0
 11
109.33093422861242
 21
263.70767139606761
 31
0.0
  0
LINE
  5
51
100
AcDbEntity
100
AcDbLine
  8
0
 62
256
370
-1
  6
ByLayer
 10
260.89876727120651
 20
61.607292082198043
 30
0.0
 11
379.23969227134683
 21
61.607292082198043
 31
0.0
  0
LINE
  5
52
100
AcDbEntity
100
AcDbLine
  8
0
 62
256
370
-1
  6
ByLayer
 10
260.89876727120651
 20
61.607292082198043
 30
0.0
 11
214.59671725874119
 21
15.30524206973287
 31
0.0
  0
LINE
  5
53
100
AcDbEntity
100
AcDbLine
  8
0
 62
256
370
-1
  6
ByLayer
 10
260.89876727120651
 20
251.50977215606289
 30
0.0
 11
260.89876727120651
 21
61.607292082198043
 31
0.0
  0
ARC
  5
54
100
AcDbEntity
  8
0-Datos
 62
92
420
42240
370
-1
  6
CONTINUOUS
100
AcDbCircle
 10
109.33093422861242
 20
217.58267139606761
 30
0.0
 40
37.5
100
AcDbArc
 50
0.0
 51
180.0
  0
LINE
  5
55
100
AcDbEntity
100
AcDbLine
  8
0-Datos
 62
92
420
42240
370
-1
  6
CONTINUOUS
 10
56.830934228612421
 20
82.58267139606744
 30
0.0
 11
56.830934228612421
 21
172.58267139606744
 31
0.0
  0
LINE
  5
56
100
AcDbEntity
100
AcDbLine
  8
0-Datos
 62
92
420
42240
370
-1
  6
CONTINUOUS
 10
161.83093422861256
 20
82.58267139606744
 30
0.0
 11
161.83093422861256
 21
172.58267139606744
 31
0.0
  0
LINE
  5
57
100
AcDbEntity
100
AcDbLine
  8
0-Datos
 62
92
420
42240
370
-1
  6
CONTINUOUS
 10
56.830934228612421
 20
82.58267139606744
 30
0.0
 11
161.83093422861256
 21
82.58267139606744
 31
0.0
  0
LINE
  5
58
100
AcDbEntity
100
AcDbLine
  8
0-Datos
 62
92
420
42240
370
-1
  6
CONTINUOUS
 10
71.830934228612421
 20
127.58267139606744
 30
0.0
 11
71.830934228612421
 21
217.58267139606761
 31
0.0
  0
LINE
  5
59
100
AcDbEntity
100
AcDbLine
  8
0-Datos
 62
92
420
42240
370
-1
  6
CONTINUOUS
 10
146.83093422861239
 20
127.58267139606744
 30
0.0
 11
146.83093422861239
 21
217.58267139606761
 31
0.0
  0
LINE
  5
5A
100
AcDbEntity
100
AcDbLine
  8
0-Datos
 62
92
420
42240
370
-1
  6
CONTINUOUS
 10
56.830934228612421
 20
172.58267139606744
 30
0.0
 11
71.830934228612421
 21
172.58267139606744
 31
0.0
  0
LINE
  5
5B
100
AcDbEntity
100
AcDbLine
  8
0-Datos
 62
92
420
42240
370
-1
  6
CONTINUOUS
 10
146.83093422861239
 20
172.58267139606744
 30
0.0
 11
161.83093422861256
 21
172.58267139606744
 31
0.0
  0
CIRCLE
  5
5C
100
AcDbEntity
100
AcDbCircle
  8
0-Datos
 62
92
420
42240
370
-1
  6
CONTINUOUS
 10
109.33093422861242
 20
217.58267139606761
 30
0.0
 40
22.5
  0
LINE
  5
5D
100
AcDbEntity
100
AcDbLine
  8
0-Datos
 62
92
420
42240
370
-1
  6
DASHED2
 10
56.830934228612421
 20
157.58267139606744
 30
0.0
 11
161.83093422861256
 21
157.58267139606744
 31
0.0
  0
LINE
  5
5E
100
AcDbEntity
100
AcDbLine
  8
0-Datos
 62
92
420
42240
370
-1
  6
DASHED2
 10
56.830934228612421
 20
97.58267139606744
 30
0.0
 11
161.83093422861256
 21
97.58267139606744
 31
0.0
  0
LINE
  5
5F
100
AcDbEntity
100
AcDbLine
  8
0-Datos
 62
142
420
31909
370
-1
  6
CONTINUOUS
 10
56.830934228612421
 20
63.977369002360746
 30
0.0
 11
56.830934228612563
 21
-26.022630997639169
 31
0.0
  0
LINE
  5
60
100
AcDbEntity
100
AcDbLine
  8
0-Datos
 62
142
420
31909
370
-1
  6
CONTINUOUS
 10
161.83093422861256
 20
63.977369002360746
 30
0.0
 11
161.83093422861256
 21
-26.022630997639169
 31
0.0
  0
LINE
  5
61
100
AcDbEntity
100
AcDbLine
  8
0-Datos
 62
142
420
31909
370
-1
  6
CONTINUOUS
 10
56.830934228612421
 20
63.977369002360746
 30
0.0
 11
161.83093422861256
 21
63.977369002360746
 31
0.0
  0
LINE
  5
62
100
AcDbEntity
100
AcDbLine
  8
0-Datos
 62
142
420
31909
370
-1
  6
CONTINUOUS
 10
161.83093422861256
 20
-26.022630997639169
 30
0.0
 11
56.830934228612563
 21
-26.022630997639169
 31
0.0
  0
LINE
  5
63
100
AcDbEntity
100
AcDbLine
  8
0-Datos
 62
142
420
31909
370
-1
  6
DASHED2
 10
86.830934228612563
 20
63.977369002360746
 30
0.0
 11
86.830934228612563
 21
-26.022630997639169
 31
0.0
  0
LINE
  5
64
100
AcDbEntity
100
AcDbLine
  8
0-Datos
 62
142
420
31909
370
-1
  6
DASHED2
 10
131.83093422861239
 20
63.977369002360746
 30
0.0
 11
131.83093422861239
 21
-26.022630997639169
 31
0.0
  0
LINE
  5
65
100
AcDbEntity
100
AcDbLine
  8
0-Datos
 62
142
420
31909
370
-1
  6
DASHED2
 10
56.830934228612421
 20
48.977369002360746
 30
0.0
 11
161.83093422861256
 21
48.977369002360746
 31
0.0
  0
LINE
  5
66
100
AcDbEntity
100
AcDbLine
  8
0-Datos
 62
142
420
31909
370
-1
  6
DASHED2
 10
56.830934228612421
 20
-11.022630997639226
 30
0.0
 11
161.83093422861256
 21
-11.022630997639226
 31
0.0
  0
LINE
  5
67
100
AcDbEntity
100
AcDbLine
  8
0-Datos
 62
142
420
31909
370
-1
  6
CONTINUOUS
 10
71.830934228612421
 20
63.977369002360746
 30
0.0
 11
71.830934228612421
 21
-26.022630997639169
 31
0.0
  0
LINE
  5
68
100
AcDbEntity
100
AcDbLine
  8
0-Datos
 62
142
420
31909
370
-1
  6
CONTINUOUS
 10
146.83093422861239
 20
63.977369002360746
 30
0.0
 11
146.83093422861239
 21
-26.022630997639169
 31
0.0
  0
LINE
  5
69
100
AcDbEntity
100
AcDbLine
  8
0-Datos
 62
40
420
16760576
370
-1
  6
CONTINUOUS
 10
38.225631834905698
 20
127.58267139606744
 30
0.0
 11
38.225631834905698
 21
255.08267139606744
 31
0.0
  0
LINE
  5
6A
100
AcDbEntity
100
AcDbLine
  8
0-Datos
 62
40
420
16760576
370
-1
  6
CONTINUOUS
 10
38.225631834905698
 20
255.08267139606744
 30
0.0
 11
-51.774368165094273
 21
255.08267139606744
 31
0.0
  0
LINE
  5
6B
100
AcDbEntity
100
AcDbLine
  8
0-Datos
 62
40
420
16760576
370
-1
  6
CONTINUOUS
 10
-51.774368165094273
 20
127.58267139606744
 30
0.0
 11
-51.774368165094273
 21
255.08267139606744
 31
0.0
  0
CIRCLE
  5
6C
100
AcDbEntity
100
AcDbCircle
  8
0-Datos
 62
40
420
16760576
370
-1
  6
CONTINUOUS
 10
-6.7743681650943586
 20
127.58267139606744
 30
0.0
 40
30.000000000000014
  0
CIRCLE
  5
6D
100
AcDbEntity
100
AcDbCircle
  8
0-Datos
 62
40
420
16760576
370
-1
  6
CONTINUOUS
 10
-6.7743681650943586
 20
127.58267139606744
 30
0.0
 40
44.999999999999986
  0
LINE
  5
6E
100
AcDbEntity
100
AcDbLine
  8
0-Datos
 62
40
420
16760576
370
-1
  6
DASHED2
 10
-51.774368165094273
 20
240.08267139606761
 30
0.0
 11
38.225631834905698
 21
240.08267139606761
 31
0.0
  0
LINE
  5
6F
100
AcDbEntity
100
AcDbLine
  8
0-Datos
 62
40
420
16760576
370
-1
  6
DASHED2
 10
-51.774368165094273
 20
195.08267139606733
 30
0.0
 11
38.225631834905698
 21
195.08267139606733
 31
0.0
  0
ARC
  5
70
100
AcDbEntity
  8
1-Perspectiva
 62
256
370
-1
  6
ByLayer
100
AcDbCircle
 10
281.57896211781173
 20
164.78748692880319
 30
0.0
 40
37.5
100
AcDbArc
 50
0.0
 51
180.0
  0
ARC
  5
71
100
AcDbEntity
  8
1-Perspectiva
 62
256
370
-1
  6
ByLayer
100
AcDbCircle
 10
313.39876727120628
 20
196.60729208219789
 30
0.0
 40
37.5
100
AcDbArc
 50
0.0
 51
134.99999999999989
  0
CIRCLE
  5
72
100
AcDbEntity
100
AcDbCircle
  8
1-Perspectiva
 62
256
370
-1
  6
ByLayer
 10
281.57896211781173
 20
164.78748692880319
 30
0.0
 40
22.5
  0
CIRCLE
  5
73
100
AcDbEntity
100
AcDbCircle
  8
1-Perspectiva
 62
256
370
-1
  6
ByLayer
 10
313.39876727120628
 20
196.60729208219789
 30
0.0
 40
22.5
  0
LINE
  5
74
100
AcDbEntity
100
AcDbLine
  8
1-Perspectiva
 62
256
370
-1
  6
ByLayer
 10
319.07896211781173
 20
74.787486928803304
 30
0.0
 11
319.07896211781173
 21
164.78748692880319
 31
0.0
  0
LINE
  5
75
100
AcDbEntity
100
AcDbLine
  8
1-Perspectiva
 62
256
370
-1
  6
ByLayer
 10
275.8987672712064
 20
106.6072920821979
 30
0.0
 11
275.8987672712064
 21
196.60729208219789
 31
0.0
  0
LINE
  5
76
100
AcDbEntity
100
AcDbLine
  8
1-Perspectiva
 62
256
370
-1
  6
ByLayer
 10
286.88226297671088
 20
223.12379637669349
 30
0.0
 11
255.06245782331621
 21
191.30399122329891
 31
0.0
  0
LINE
  5
77
100
AcDbEntity
100
AcDbLine
  8
1-Perspectiva
 62
256
370
-1
  6
ByLayer
 10
265.66905954111439
 20
180.69738950550061
 30
0.0
 11
297.48886469450918
 21
212.51719465889531
 31
0.0
  0
LINE
  5
78
100
AcDbEntity
100
AcDbLine
  8
1-Perspectiva
 62
256
370
-1
  6
ByLayer
 10
329.30866984790367
 20
180.69738950550061
 30
0.0
 11
297.48886469450889
 21
148.877584352106
 31
0.0
  0
ELLIPSE
  5
79
100
AcDbEntity
100
AcDbEllipse
  8
1-Perspectiva
 62
256
370
-1
  6
ByLayer
 10
349.98886469450912
 20
90.697389505500695
 30
0.0
 11
5.8715206606991242
 21
47.694982509855819
 31
0.0
 40
0.310028979255045
 41
0.0
 42
6.2831853071795862
  0
ELLIPSE
  5
7A
100
AcDbEntity
100
AcDbEllipse
  8
1-Perspectiva
 62
256
370
-1
  6
ByLayer
 10
349.98886469450912
 20
90.697389505500695
 30
0.0
 11
3.91434710713275
 21
31.79665500657055
 31
0.0
 40
0.3100289792550448
 41
0.0
 42
6.2831853071795862
  0
ELLIPSE
  5
7B
100
AcDbEntity
100
AcDbEllipse
  8
1-Perspectiva
 62
256
370
-1
  6
ByLayer
 10
259.988864694509
 20
90.697389505500695
 30
0.0
 11
5.8715206606991242
 21
47.694982509855819
 31
0.0
 40
0.310028979255045
 41
5.0903736855966404
 42
8.2319663391864371
  0
LINE
  5
7C
100
AcDbEntity
100
AcDbLine
  8
1-Perspectiva
 62
256
370
-1
  6
ByLayer
 10
239.6855616379751
 20
42.967681775409261
 30
0.0
 11
344.68556418204639
 21
42.967681775409261
 31
0.0
  0
LINE
  5
7D
100
AcDbEntity
100
AcDbLine
  8
1-Perspectiva
 62
256
370
-1
  6
ByLayer
 10
265.29216574741531
 20
138.4270972355927
 30
0.0
 11
250.29216778308489
 21
138.4270972355927
 31
0.0
  0
ARC
  5
7E
100
AcDbEntity
  8
1-Perspectiva
 62
256
370
-1
  6
ByLayer
100
AcDbCircle
 10
313.39876727120628
 20
196.60729208219789
 30
0.0
 40
37.5
100
AcDbArc
 50
134.99999999999989
 51
180.0
  0
LINE
  5
7F
100
AcDbEntity
100
AcDbLine
  8
1-Perspectiva
 62
256
370
-1
  6
ByLayer
 10
248.52439890775861
 20
122.51719465889531
 30
0.0
 11
353.52440011045718
 21
122.51719465889531
 31
0.0
  0
LINE
  5
80
100
AcDbEntity
100
AcDbLine
  8
1-Perspectiva
 62
256
370
-1
  6
ByLayer
 10
346.45333241255378
 20
58.877584352106489
 30
0.0
 11
241.45333247378031
 21
58.877584352106489
 31
0.0
  0
ELLIPSE
  5
81
100
AcDbEntity
100
AcDbEllipse
  8
1-Perspectiva
 62
256
370
-1
  6
ByLayer
 10
244.98886512044251
 20
90.697389505501079
 30
0.0
 11
5.8715206606991242
 21
47.694982509855819
 31
0.0
 40
0.310028979255045
 41
0.0
 42
6.2831853071795862
  0
ELLIPSE
  5
82
100
AcDbEntity
100
AcDbEllipse
  8
1-Perspectiva
 62
256
370
-1
  6
ByLayer
 10
334.98886547097942
 20
90.697389505500325
 30
0.0
 11
5.8715206606991242
 21
47.694982509855819
 31
0.0
 40
0.310028979255045
 41
5.0903736855966342
 42
8.2319663391864424
  0
ELLIPSE
  5
83
100
AcDbEntity
100
AcDbEllipse
  8
1-Perspectiva
 62
256
370
-1
  6
ByLayer
 10
244.98886512044251
 20
90.697389505501079
 30
0.0
 11
3.91434710713275
 21
31.79665500657055
 31
0.0
 40
0.3100289792550448
 41
0.0
 42
6.2831853071795862
  0
LINE
  5
84
100
AcDbEntity
100
AcDbLine
  8
1-Perspectiva
 62
256
370
-1
  6
ByLayer
 10
350.8987672712064
 20
106.62135036275674
 30
0.0
 11
350.8987672712064
 21
196.60729208219789
 31
0.0
  0
LINE
  5
85
100
AcDbEntity
100
AcDbLine
  8
1-Perspectiva
 62
256
370
-1
  6
ByLayer
 10
244.07896211781167
 20
74.787490161275429
 30
0.0
 11
244.0789621178117
 21
164.78748692880319
 31
0.0
  0
LINE
  5
86
100
AcDbEntity
100
AcDbLine
  8
1-Perspectiva
 62
256
370
-1
  6
ByLayer
 10
355.29216373147943
 20
138.42709723559227
 30
0.0
 11
340.29216652388573
 21
138.4270972355923
 31
0.0
  0
ENDSEC
  0
SECTION
  2
OBJECTS
  0
DICTIONARY
  5
C
100
AcDbDictionary
280
0
281
1
  3
ACAD_GROUP
350
D
  3
ACAD_LAYOUT
350
1A
  3
ACAD_MLINESTYLE
350
17
  3
ACAD_PLOTSETTINGS
350
19
  3
ACAD_PLOTSTYLENAME
350
E
  3
AcDbVariableDictionary
350
87
  0
DICTIONARY
  5
D
100
AcDbDictionary
280
0
281
1
  0
ACDBDICTIONARYWDFLT
  5
E
100
AcDbDictionary
281
1
  3
Normal
350
F
100
AcDbDictionaryWithDefault
340
F
  0
ACDBPLACEHOLDER
  5
F
  0
DICTIONARY
  5
17
100
AcDbDictionary
280
0
281
1
  3
Standard
350
18
  0
MLINESTYLE
  5
18
100
AcDbMlineStyle
  2
STANDARD
 70
0
  3

 62
256
 51
90.0
 52
90.0
 71
2
 49
0.5
 62
256
  6
BYLAYER
 49
-0.5
 62
256
  6
BYLAYER
  0
DICTIONARY
  5
19
100
AcDbDictionary
280
0
281
1
  0
DICTIONARY
  5
1A
100
AcDbDictionary
281
1
  3
Layout1
350
1E
  3
Layout2
350
26
  3
Model
350
22
  0
LAYOUT
  5
1E
100
AcDbPlotSettings
  1

  2
C:\Program Files\AutoCAD 2002\plotters\DWF ePlot (optimized for plotting).pc3
  4

  6

 40
0.0
 41
0.0
 42
0.0
 43
0.0
 44
0.0
 45
0.0
 46
0.0
 47
0.0
 48
0.0
 49
0.0
140
0.0
141
0.0
142
1.0
143
1.0
 70
688
 72
0
 73
0
 74
5
  7

 75
16
147
1.0
148
0.0
149
0.0
100
AcDbLayout
  1
Layout1
 70
1
 71
1
 10
0.0
 20
0.0
 11
420.0
 21
297.0
 12
0.0
 22
0.0
 32
0.0
 14
100000000000000000000.0
 24
100000000000000000000.0
 34
100000000000000000000.0
 15
-100000000000000000000.0
 25
-100000000000000000000.0
 35
-100000000000000000000.0
146
0.0
 13
0.0
 23
0.0
 33
0.0
 16
1.0
 26
0.0
 36
0.0
 17
0.0
 27
1.0
 37
0.0
 76
0
330
1B
  0
LAYOUT
  5
22
100
AcDbPlotSettings
  1

  2
C:\Program Files\AutoCAD 2002\plotters\DWF ePlot (optimized for plotting).pc3
  4

  6

 40
0.0
 41
0.0
 42
0.0
 43
0.0
 44
0.0
 45
0.0
 46
0.0
 47
0.0
 48
0.0
 49
0.0
140
0.0
141
0.0
142
1.0
143
1.0
 70
1712
 72
0
 73
0
 74
0
  7

 75
0
147
1.0
148
0.0
149
0.0
100
AcDbLayout
  1
Model
 70
1
 71
0
 10
0.0
 20
0.0
 11
12.0
 21
9.0
 12
0.0
 22
0.0
 32
0.0
 14
0.0
 24
0.0
 34
0.0
 15
0.0
 25
0.0
 35
0.0
146
0.0
 13
0.0
 23
0.0
 33
0.0
 16
1.0
 26
0.0
 36
0.0
 17
0.0
 27
1.0
 37
0.0
 76
0
330
1F
  0
LAYOUT
  5
26
100
AcDbPlotSettings
  1

  2
C:\Program Files\AutoCAD 2002\plotters\DWF ePlot (optimized for plotting).pc3
  4

  6

 40
0.0
 41
0.0
 42
0.0
 43
0.0
 44
0.0
 45
0.0
 46
0.0
 47
0.0
 48
0.0
 49
0.0
140
0.0
141
0.0
142
1.0
143
1.0
 70
688
 72
0
 73
0
 74
5
  7

 75
16
147
1.0
148
0.0
149
0.0
100
AcDbLayout
  1
Layout2
 70
1
 71
2
 10
0.0
 20
0.0
 11
12.0
 21
9.0
 12
0.0
 22
0.0
 32
0.0
 14
0.0
 24
0.0
 34
0.0
 15
0.0
 25
0.0
 35
0.0
146
0.0
 13
0.0
 23
0.0
 33
0.0
 16
1.0
 26
0.0
 36
0.0
 17
0.0
 27
1.0
 37
0.0
 76
0
330
23
  0
DICTIONARY
  5
87
100
AcDbDictionary
281
1
  3
DIMASSOC
350
89
  3
HIDETEXT
350
88
  0
DICTIONARYVAR
  5
88
100
DictionaryVariables
280
0
  1
2
  0
DICTIONARYVAR
  5
89
100
DictionaryVariables
280
0
  1
1
  0
ENDSEC
  0
EOF
