999
dxflib 2.2.0.0
  0
SECTION
  2
HEADER
  9
$ACADVER
  1
AC1015
  9
$HANDSEED
  5
FFFF
  9
$OBSCOLOR
 70
257
  9
$DIMLIM
 70
0
  9
$DIMLUNIT
 70
2
  9
$DIMTIX
 70
0
  9
$AUNITS
 70
0
  9
$QTEXTMODE
 70
0
  9
$USERR1
 40
0.0
  9
$DIMALTU
 70
2
  9
$USERR2
 40
0.0
  9
$UCSORGBOTTOM
 10
0.0
 20
0.0
 30
0.0
  9
$USERR3
 40
0.0
  9
$USERR4
 40
0.0
  9
$USERR5
 40
0.0
  9
$LIMMAX
 10
16.535433070866141
 20
11.69291338582677
  9
$PELEVATION
 40
0.0
  9
$DIMALTZ
 70
0
  9
$DIMADEC
 70
2
  9
$JOINSTYLE
280
0
  9
$TILEMODE
 70
1
  9
$DIMATFIT
 70
3
  9
$PEXTMIN
 10
100000000000000000000.0
 20
100000000000000000000.0
 30
100000000000000000000.0
  9
$TDUSRTIMER
 40
0.0000005556
  9
$DWGCODEPAGE
  3
ANSI_1252
  9
$SORTENTS
280
127
  9
$UCSORTHOVIEW
 70
0
  9
$DIMSOXD
 70
0
  9
$DIMTZIN
 70
0
  9
$SPLINETYPE
 70
6
  9
$DIMLFAC
 40
1.0
  9
$DIMSE1
 70
0
  9
$FILLETRAD
 40
4.9999999999999991
  9
$DIMSE2
 70
0
  9
$PSTYLEMODE
290
1
  9
$TEXTSTYLE
  7
Standard
  9
$DIMTSZ
 40
0.0
  9
$PUCSXDIR
 10
1.0
 20
0.0
 30
0.0
  9
$XCLIPFRAME
290
0
  9
$DIMTXSTY
  7
Standard
  9
$PLIMMAX
 10
297.0
 20
210.0
  9
$DIMTM
 40
0.0
  9
$UCSORG
 10
0.0
 20
0.0
 30
0.0
  9
$DIMTP
 40
0.0
  9
$PSLTSCALE
 70
1
  9
$EXTNAMES
290
1
  9
$ANGBASE
 50
0.0
  9
$PUCSYDIR
 10
0.0
 20
1.0
 30
0.0
  9
$DIMASZ
 40
3.0
  9
$PUCSORTHOVIEW
 70
0
  9
$UNITMODE
 70
0
  9
$INDEXCTL
280
0
  9
$MEASUREMENT
 70
1
  9
$INSBASE
 10
0.0
 20
0.0
 30
0.0
  9
$EXTMAX
 10
448.11001968081388
 20
285.2204659454261
 30
14.79760494684408
  9
$ELEVATION
 40
0.0
  9
$TDCREATE
 40
2456233.857710937
  9
$DIMDEC
 70
2
  9
$CELTYPE
  6
ByLayer
  9
$GRIDUNIT
 10
0.0
 20
0.0
  9
$MENU
  1
.
  9
$ANGDIR
 70
0
  9
$DIMALTTD
 70
2
  9
$TREEDEPTH
 70
3020
  9
$PROXYGRAPHICS
 70
1
  9
$LTSCALE
 40
1.0
  9
$DIMTMOVE
 70
0
  9
$DIMAZIN
 70
0
  9
$TDUPDATE
 40
2456233.857710937
  9
$DIMTOLJ
 70
1
  9
$DIMCEN
 40
0.09
  9
$DIMTVP
 40
0.0
  9
$TRACEWID
 40
0.05
  9
$CMLSTYLE
  2
Standard
  9
$DISPSILH
 70
0
  9
$DIMSTYLE
  2
Standard
  9
$SKETCHINC
 40
0.1
  9
$FILLMODE
 70
1
  9
$PLINEGEN
 70
0
  9
$DIMLWD
 70
-2
  9
$THICKNESS
 40
0.0
  9
$PUCSORG
 10
0.0
 20
0.0
 30
0.0
  9
$DIMLWE
 70
-2
  9
$CELTSCALE
 40
1.0
  9
$DIMALTTZ
 70
0
  9
$INSUNITS
 70
0
  9
$UCSORGBACK
 10
0.0
 20
0.0
 30
0.0
  9
$PLINEWID
 40
0.0
  9
$PEXTMAX
 10
-100000000000000000000.0
 20
-100000000000000000000.0
 30
-100000000000000000000.0
  9
$DIMJUST
 70
0
  9
$DIMASSOC
280
2
  9
$UCSYDIR
 10
0.0
 20
1.0
 30
0.0
  9
$PUCSORGBACK
 10
0.0
 20
0.0
 30
0.0
  9
$GRIDMODE
 70
0
  9
$PUCSORGBOTTOM
 10
0.0
 20
0.0
 30
0.0
  9
$PDSIZE
 40
0.0
  9
$DIMUPT
 70
0
  9
$DIMTAD
 70
0
  9
$MAXACTVP
 70
64
  9
$UCSXDIR
 10
1.0
 20
0.0
 30
0.0
  9
$DIMSAH
 70
0
  9
$HALOGAP
280
0
  9
$TDUCREATE
 40
2456233.816044271
  9
$DIMFRAC
 70
0
  9
$USERI1
 70
0
  9
$USERI2
 70
0
  9
$CELWEIGHT
370
-1
  9
$USERI3
 70
0
  9
$UCSORGRIGHT
 10
0.0
 20
0.0
 30
0.0
  9
$LWDISPLAY
290
0
  9
$SKPOLY
 70
0
  9
$USERI4
 70
0
  9
$USERI5
 70
0
  9
$UCSORGTOP
 10
0.0
 20
0.0
 30
0.0
  9
$LIMMIN
 10
0.0
 20
0.0
  9
$ACADMAINTVER
 70
39
  9
$MIRRTEXT
 70
0
  9
$TDUUPDATE
 40
2456233.816044271
  9
$TEXTSIZE
 40
3.9999999999999991
  9
$DIMGAP
 40
0.75
  9
$LUPREC
 70
2
  9
$CECOLOR
 62
7
  9
$DIMSD1
 70
0
  9
$DIMSD2
 70
0
  9
$WORLDVIEW
 70
1
  9
$PUCSORGRIGHT
 10
0.0
 20
0.0
 30
0.0
  9
$PLIMCHECK
 70
0
  9
$DIMTFAC
 40
1.0
  9
$CMLJUST
 70
0
  9
$USRTIMER
 70
1
  9
$SURFU
 70
6
  9
$SURFV
 70
6
  9
$DIMASO
 70
1
  9
$DIMDLE
 40
0.0
  9
$EXTMIN
 10
14.79760494684407
 20
41.335148485856223
 30
-0.00000001
  9
$UCSORGLEFT
 10
0.0
 20
0.0
 30
0.0
  9
$OLESTARTUP
290
0
  9
$PUCSORGFRONT
 10
0.0
 20
0.0
 30
0.0
  9
$DIMDLI
 40
0.38
  9
$LUNITS
 70
2
  9
$DIMCLRD
 70
0
  9
$SHADEDIF
 70
70
  9
$DIMCLRE
 70
0
  9
$SPLINESEGS
 70
8
  9
$PUCSORGLEFT
 10
0.0
 20
0.0
 30
0.0
  9
$INTERSECTIONDISPLAY
280
0
  9
$DIMALTRND
 40
0.0
  9
$DIMRND
 40
0.0
  9
$DIMALT
 70
0
  9
$FINGERPRINTGUID
  2
{22A7A059-DBFC-4702-90C7-FA954C893A8A}
  9
$DIMCLRT
 70
0
  9
$PUCSORGTOP
 10
0.0
 20
0.0
 30
0.0
  9
$OBSLTYPE
280
0
  9
$DIMTOH
 70
1
  9
$UCSORGFRONT
 10
0.0
 20
0.0
 30
0.0
  9
$VISRETAIN
 70
1
  9
$SHADEDGE
 70
3
  9
$DIMTOL
 70
0
  9
$SURFTYPE
 70
6
  9
$VERSIONGUID
  2
{CBF0B85F-F194-4CC8-B963-8574F5948DD2}
  9
$CHAMFERA
 40
4.9999999999999991
  9
$SURFTAB1
 70
6
  9
$CHAMFERB
 40
4.9999999999999991
  9
$SURFTAB2
 70
6
  9
$CHAMFERC
 40
0.0
  9
$AUPREC
 70
2
  9
$CHAMFERD
 40
0.0
  9
$DIMTDEC
 70
4
  9
$PDMODE
 70
0
  9
$PLIMMIN
 10
0.0
 20
0.0
  9
$SPLFRAME
 70
0
  9
$XEDIT
290
1
  9
$DIMDSEP
 70
46
  9
$LIMCHECK
 70
0
  9
$PINSBASE
 10
0.0
 20
0.0
 30
0.0
  9
$ORTHOMODE
 70
0
  9
$PSVPSCALE
 40
0.0
  9
$CLAYER
  8
0
  9
$DIMSHO
 70
1
  9
$DIMTOFL
 70
0
  9
$DIMTXT
 40
3.0
  9
$DIMEXE
 40
1.5
  9
$TDINDWG
 40
0.0000005556
  9
$REGENMODE
 70
1
  9
$ATTMODE
 70
1
  9
$CMLSCALE
 40
1.0
  9
$DIMTIH
 70
1
  9
$DIMZIN
 70
0
  9
$CEPSNTYPE
380
0
  9
$HIDETEXT
280
1
  9
$DIMSCALE
 40
1.0
  9
$INTERSECTIONCOLOR
 70
257
  9
$DIMALTD
 70
2
  9
$DIMAUNIT
 70
0
  9
$DIMEXO
 40
0.75
  9
$DIMALTF
 40
25.399999999999999
  9
$ENDCAPS
280
0
  9
$CLAYER
  8
1-Perspectiva
  0
ENDSEC
  0
SECTION
  2
TABLES
  0
TABLE
  2
VPORT
  5
8
100
AcDbSymbolTable
 70
1
  0
VPORT
  5
30
100
AcDbSymbolTableRecord
100
AcDbViewportTableRecord
  2
*Active
 70
0
 10
0.0
 20
0.0
 11
1.0
 21
1.0
 12
286.30555555555549
 22
148.5
 13
0.0
 23
0.0
 14
10.0
 24
10.0
 15
10.0
 25
10.0
 16
0.0
 26
0.0
 36
1.0
 17
0.0
 27
0.0
 37
0.0
 40
297.0
 41
1.92798353909465
 42
50.0
 43
0.0
 44
0.0
 50
0.0
 51
0.0
 71
0
 72
100
 73
1
 74
3
 75
1
 76
1
 77
0
 78
0
281
0
 65
1
110
0.0
120
0.0
130
0.0
111
1.0
121
0.0
131
0.0
112
0.0
122
1.0
132
0.0
 79
0
146
0.0
  0
ENDTAB
  0
TABLE
  2
LTYPE
  5
5
100
AcDbSymbolTable
 70
21
  0
LTYPE
  5
14
100
AcDbSymbolTableRecord
100
AcDbLinetypeTableRecord
  2
ByBlock
 70
0
  3

 72
65
 73
0
 40
0.0
  0
LTYPE
  5
15
100
AcDbSymbolTableRecord
100
AcDbLinetypeTableRecord
  2
ByLayer
 70
0
  3

 72
65
 73
0
 40
0.0
  0
LTYPE
  5
16
100
AcDbSymbolTableRecord
100
AcDbLinetypeTableRecord
  2
CONTINUOUS
 70
0
  3
Solid line
 72
65
 73
0
 40
0.0
  0
LTYPE
  5
31
100
AcDbSymbolTableRecord
100
AcDbLinetypeTableRecord
  2
DOT
 70
0
  3
Dot . . . . . . . . . . . . . . . . . . . . . .
 72
65
 73
2
 40
6.3499999999999996
 49
0.0
 74
0
 49
-6.3499999999999996
 74
0
  0
LTYPE
  5
32
100
AcDbSymbolTableRecord
100
AcDbLinetypeTableRecord
  2
DOT2
 70
0
  3
Dot (.5x) .....................................
 72
65
 73
2
 40
3.1749999999999998
 49
0.0
 74
0
 49
-3.1749999999999998
 74
0
  0
LTYPE
  5
33
100
AcDbSymbolTableRecord
100
AcDbLinetypeTableRecord
  2
DOTX2
 70
0
  3
Dot (2x) .  .  .  .  .  .  .  .  .  .  .  .  .
 72
65
 73
2
 40
12.699999999999999
 49
0.0
 74
0
 49
-12.699999999999999
 74
0
  0
LTYPE
  5
34
100
AcDbSymbolTableRecord
100
AcDbLinetypeTableRecord
  2
DASHED
 70
0
  3
Dashed __ __ __ __ __ __ __ __ __ __ __ __ __ _
 72
65
 73
2
 40
19.050000000000001
 49
12.699999999999999
 74
0
 49
-6.3499999999999996
 74
0
  0
LTYPE
  5
35
100
AcDbSymbolTableRecord
100
AcDbLinetypeTableRecord
  2
DASHED2
 70
0
  3
Dashed (.5x) _ _ _ _ _ _ _ _ _ _ _ _ _ _ _ _ _
 72
65
 73
2
 40
9.5250000000000004
 49
6.3499999999999996
 74
0
 49
-3.1749999999999998
 74
0
  0
LTYPE
  5
36
100
AcDbSymbolTableRecord
100
AcDbLinetypeTableRecord
  2
DASHEDX2
 70
0
  3
Dashed (2x) ____  ____  ____  ____  ____  ___
 72
65
 73
2
 40
38.100000000000001
 49
25.399999999999999
 74
0
 49
-12.699999999999999
 74
0
  0
LTYPE
  5
37
100
AcDbSymbolTableRecord
100
AcDbLinetypeTableRecord
  2
DASHDOT
 70
0
  3
Dash dot __ . __ . __ . __ . __ . __ . __ . __
 72
65
 73
4
 40
25.399999999999999
 49
12.699999999999999
 74
0
 49
-6.3499999999999996
 74
0
 49
0.0
 74
0
 49
-6.3499999999999996
 74
0
  0
LTYPE
  5
38
100
AcDbSymbolTableRecord
100
AcDbLinetypeTableRecord
  2
DASHDOT2
 70
0
  3
Dash dot (.5x) _._._._._._._._._._._._._._._.
 72
65
 73
4
 40
12.699999999999999
 49
6.3499999999999996
 74
0
 49
-3.1749999999999998
 74
0
 49
0.0
 74
0
 49
-3.1749999999999998
 74
0
  0
LTYPE
  5
39
100
AcDbSymbolTableRecord
100
AcDbLinetypeTableRecord
  2
DASHDOTX2
 70
0
  3
Dash dot (2x) ____  .  ____  .  ____  .  ___
 72
65
 73
4
 40
50.799999999999997
 49
25.399999999999999
 74
0
 49
-12.699999999999999
 74
0
 49
0.0
 74
0
 49
-12.699999999999999
 74
0
  0
LTYPE
  5
3A
100
AcDbSymbolTableRecord
100
AcDbLinetypeTableRecord
  2
DIVIDE
 70
0
  3
Divide ____ . . ____ . . ____ . . ____ . . ____
 72
65
 73
6
 40
31.75
 49
12.699999999999999
 74
0
 49
-6.3499999999999996
 74
0
 49
0.0
 74
0
 49
-6.3499999999999996
 74
0
 49
0.0
 74
0
 49
-6.3499999999999996
 74
0
  0
LTYPE
  5
3B
100
AcDbSymbolTableRecord
100
AcDbLinetypeTableRecord
  2
DIVIDE2
 70
0
  3
Divide (.5x) __..__..__..__..__..__..__..__.._
 72
65
 73
6
 40
15.875
 49
6.3499999999999996
 74
0
 49
-3.1749999999999998
 74
0
 49
0.0
 74
0
 49
-3.1749999999999998
 74
0
 49
0.0
 74
0
 49
-3.1749999999999998
 74
0
  0
LTYPE
  5
3C
100
AcDbSymbolTableRecord
100
AcDbLinetypeTableRecord
  2
DIVIDEX2
 70
0
  3
Divide (2x) ________  .  .  ________  .  .  _
 72
65
 73
6
 40
63.5
 49
25.399999999999999
 74
0
 49
-12.699999999999999
 74
0
 49
0.0
 74
0
 49
-12.699999999999999
 74
0
 49
0.0
 74
0
 49
-12.699999999999999
 74
0
  0
LTYPE
  5
3D
100
AcDbSymbolTableRecord
100
AcDbLinetypeTableRecord
  2
CENTER
 70
0
  3
Center ____ _ ____ _ ____ _ ____ _ ____ _ ____
 72
65
 73
4
 40
50.799999999999997
 49
31.75
 74
0
 49
-6.3499999999999996
 74
0
 49
6.3499999999999996
 74
0
 49
-6.3499999999999996
 74
0
  0
LTYPE
  5
3E
100
AcDbSymbolTableRecord
100
AcDbLinetypeTableRecord
  2
CENTER2
 70
0
  3
Center (.5x) ___ _ ___ _ ___ _ ___ _ ___ _ ___
 72
65
 73
4
 40
28.574999999999999
 49
19.050000000000001
 74
0
 49
-3.1749999999999998
 74
0
 49
3.1749999999999998
 74
0
 49
-3.1749999999999998
 74
0
  0
LTYPE
  5
3F
100
AcDbSymbolTableRecord
100
AcDbLinetypeTableRecord
  2
CENTERX2
 70
0
  3
Center (2x) ________  __  ________  __  _____
 72
65
 73
4
 40
101.59999999999999
 49
63.5
 74
0
 49
-12.699999999999999
 74
0
 49
12.699999999999999
 74
0
 49
-12.699999999999999
 74
0
  0
LTYPE
  5
40
100
AcDbSymbolTableRecord
100
AcDbLinetypeTableRecord
  2
BORDER
 70
0
  3
Border __ __ . __ __ . __ __ . __ __ . __ __ .
 72
65
 73
6
 40
44.450000000000003
 49
12.699999999999999
 74
0
 49
-6.3499999999999996
 74
0
 49
12.699999999999999
 74
0
 49
-6.3499999999999996
 74
0
 49
0.0
 74
0
 49
-6.3499999999999996
 74
0
  0
LTYPE
  5
41
100
AcDbSymbolTableRecord
100
AcDbLinetypeTableRecord
  2
BORDER2
 70
0
  3
Border (.5x) __.__.__.__.__.__.__.__.__.__.__.
 72
65
 73
6
 40
22.225000000000001
 49
6.3499999999999996
 74
0
 49
-3.1749999999999998
 74
0
 49
6.3499999999999996
 74
0
 49
-3.1749999999999998
 74
0
 49
0.0
 74
0
 49
-3.1749999999999998
 74
0
  0
LTYPE
  5
42
100
AcDbSymbolTableRecord
100
AcDbLinetypeTableRecord
  2
BORDERX2
 70
0
  3
Border (2x) ____  ____  .  ____  ____  .  ___
 72
65
 73
6
 40
88.900000000000006
 49
25.399999999999999
 74
0
 49
-12.699999999999999
 74
0
 49
25.399999999999999
 74
0
 49
-12.699999999999999
 74
0
 49
0.0
 74
0
 49
-12.699999999999999
 74
0
  0
ENDTAB
  0
TABLE
  2
LAYER
  5
2
100
AcDbSymbolTable
 70
3
  0
LAYER
  5
10
100
AcDbSymbolTableRecord
100
AcDbLayerTableRecord
  2
0
 70
0
 62
7
420
16777215
  6
CONTINUOUS
370
-3
390
F
  0
LAYER
  5
43
100
AcDbSymbolTableRecord
100
AcDbLayerTableRecord
  2
1-Perspectiva
 70
0
 62
1
420
16711680
  6
CONTINUOUS
370
-3
390
F
  0
LAYER
  5
44
100
AcDbSymbolTableRecord
100
AcDbLayerTableRecord
  2
0-Datos
 70
0
 62
7
420
0
  6
CONTINUOUS
370
0
390
F
  0
ENDTAB
  0
TABLE
  2
STYLE
  5
3
100
AcDbSymbolTable
 70
1
  0
STYLE
  5
11
100
AcDbSymbolTableRecord
100
AcDbTextStyleTableRecord
  2
Standard
 70
0
 40
0.0
 41
0.75
 50
0.0
 71
0
 42
2.5
  3
txt
  4

  0
ENDTAB
  0
TABLE
  2
VIEW
  5
6
100
AcDbSymbolTable
 70
0
  0
ENDTAB
  0
TABLE
  2
UCS
  5
7
100
AcDbSymbolTable
 70
0
  0
ENDTAB
  0
TABLE
  2
APPID
  5
9
100
AcDbSymbolTable
 70
1
  0
APPID
  5
12
100
AcDbSymbolTableRecord
100
AcDbRegAppTableRecord
  2
ACAD
 70
0
  0
ENDTAB
  0
TABLE
  2
DIMSTYLE
  5
A
100
AcDbSymbolTable
 70
1
100
AcDbDimStyleTable
 71
0
  0
DIMSTYLE
105
27
100
AcDbSymbolTableRecord
100
AcDbDimStyleTableRecord
  2
Standard
 41
3.0
 42
0.75
 43
3.75
 44
1.5
 70
0
 73
0
 74
0
 77
1
 78
8
140
3.0
141
2.5
143
0.03937007874016
147
0.75
171
3
172
1
271
2
272
2
274
3
278
44
283
0
284
8
340
11
  0
ENDTAB
  0
TABLE
  2
BLOCK_RECORD
  5
1
100
AcDbSymbolTable
 70
1
  0
BLOCK_RECORD
  5
1F
100
AcDbSymbolTableRecord
100
AcDbBlockTableRecord
  2
*Model_Space
340
22
  0
BLOCK_RECORD
  5
1B
100
AcDbSymbolTableRecord
100
AcDbBlockTableRecord
  2
*Paper_Space
340
1E
  0
BLOCK_RECORD
  5
23
100
AcDbSymbolTableRecord
100
AcDbBlockTableRecord
  2
*Paper_Space0
340
26
  0
ENDTAB
  0
ENDSEC
  0
SECTION
  2
BLOCKS
  0
BLOCK
  5
20
100
AcDbEntity
  8
0
100
AcDbBlockBegin
  2
*Model_Space
 70
0
 10
0.0
 20
0.0
 30
0.0
  3
*Model_Space
  1

  0
ENDBLK
  5
21
100
AcDbEntity
  8
0
100
AcDbBlockEnd
  0
BLOCK
  5
1C
100
AcDbEntity
 67
1
  8
0
100
AcDbBlockBegin
  2
*Paper_Space
 70
0
 10
0.0
 20
0.0
 30
0.0
  3
*Paper_Space
  1

  0
ENDBLK
  5
1D
100
AcDbEntity
 67
1
  8
0
100
AcDbBlockEnd
  0
BLOCK
  5
24
100
AcDbEntity
  8
0
100
AcDbBlockBegin
  2
*Paper_Space0
 70
0
 10
0.0
 20
0.0
 30
0.0
  3
*Paper_Space0
  1

  0
ENDBLK
  5
25
100
AcDbEntity
  8
0
100
AcDbBlockEnd
  0
ENDSEC
  0
SECTION
  2
ENTITIES
  0
MTEXT
  5
45
100
AcDbEntity
100
AcDbMText
  8
0
 62
6
420
16711935
370
-1
  6
CONTINUOUS
 10
121.74011569266514
 20
52.68247214340775
 30
0.0
 40
4.0
 41
168.32391052971579
 71
7
 72
2
  1
X
  7
ARIAL
 50
180.0
 73
1
 44
1.0
  0
MTEXT
  5
46
100
AcDbEntity
100
AcDbMText
  8
0
 62
6
420
16711935
370
-1
  6
CONTINUOUS
 10
-40.06976571458425
 20
141.24367118351674
 30
0.0
 40
4.0
 41
168.32391052971579
 71
7
 72
2
  1
Y
  7
ARIAL
 50
0.0
 73
1
 44
1.0
  0
MTEXT
  5
47
100
AcDbEntity
100
AcDbMText
  8
0
 62
6
420
16711935
370
-1
  6
CONTINUOUS
 10
118.00681643372182
 20
199.03135927111396
 30
0.0
 40
4.0
 41
168.32391052971579
 71
7
 72
2
  1
Z
  7
ARIAL
 50
0.0
 73
1
 44
1.0
  0
HATCH
  5
48
  8
0
 62
6
420
16711935
370
-1
  6
ByLayer
100
AcDbEntity
100
AcDbHatch
 10
0.0
 20
0.0
 30
0.0
210
0.0
220
0.0
230
1.0
  2
SOLID
 70
1
 71
0
 91
1
 92
1
 93
4
 72
1
 10
121.97954514790221
 20
184.64484221452969
 11
120.004605139833
 21
192.01541866654429
 72
1
 10
120.004605139833
 20
192.01541866654429
 11
118.02966513176379
 21
184.64484221452969
 72
1
 10
118.02966513176379
 20
184.64484221452969
 11
120.00460513983302
 21
187.10170103186778
 72
1
 10
120.004605139833
 20
187.10170103186786
 11
121.97954514790221
 21
184.64484221452969
 97
0
 75
0
 76
1
 98
0
  0
LINE
  5
49
100
AcDbEntity
100
AcDbLine
  8
0
 62
6
420
16711935
370
-1
  6
CONTINUOUS
 10
121.97954514790221
 20
184.64484221452969
 30
0.0
 11
120.004605139833
 21
187.10170103186786
 31
0.0
  0
LINE
  5
4A
100
AcDbEntity
100
AcDbLine
  8
0
 62
6
420
16711935
370
-1
  6
CONTINUOUS
 10
118.02966513176379
 20
184.64484221452969
 30
0.0
 11
120.00460513983302
 21
187.10170103186778
 31
0.0
  0
LINE
  5
4B
100
AcDbEntity
100
AcDbLine
  8
0
 62
6
420
16711935
370
-1
  6
CONTINUOUS
 10
118.02966513176379
 20
184.64484221452969
 30
0.0
 11
120.004605139833
 21
192.01541866654429
 31
0.0
  0
LINE
  5
4C
100
AcDbEntity
100
AcDbLine
  8
0
 62
6
420
16711935
370
-1
  6
CONTINUOUS
 10
121.97954514790221
 20
184.64484221452969
 30
0.0
 11
120.004605139833
 21
192.01541866654429
 31
0.0
  0
HATCH
  5
4D
  8
0
 62
6
420
16711935
370
-1
  6
ByLayer
100
AcDbEntity
100
AcDbHatch
 10
0.0
 20
0.0
 30
0.0
210
0.0
220
0.0
230
1.0
  2
SOLID
 70
1
 71
0
 91
1
 92
1
 93
4
 72
1
 10
118.02966513176379
 20
62.15527156531553
 11
120.004605139833
 21
54.784695113300941
 72
1
 10
120.004605139833
 20
54.784695113300941
 11
121.97954514790221
 21
62.15527156531553
 72
1
 10
121.97954514790221
 20
62.15527156531553
 11
120.00460513983299
 21
59.698412747977443
 72
1
 10
120.004605139833
 20
59.698412747977358
 11
118.02966513176379
 21
62.15527156531553
 97
0
 75
0
 76
1
 98
0
  0
HATCH
  5
4E
  8
0
 62
6
420
16711935
370
-1
  6
ByLayer
100
AcDbEntity
100
AcDbHatch
 10
0.0
 20
0.0
 30
0.0
210
0.0
220
0.0
230
1.0
  2
SOLID
 70
1
 71
0
 91
1
 92
1
 93
4
 72
1
 10
-27.601479211165881
 20
140.97188180796749
 11
-34.972055663180427
 21
142.94682181603667
 72
1
 10
-34.972055663180427
 20
142.94682181603667
 11
-27.601479211165937
 21
144.92176182410606
 72
1
 10
-27.601479211165937
 20
144.92176182410606
 11
-30.05833802850411
 21
142.9468218160367
 72
1
 10
-30.05833802850411
 20
142.9468218160367
 11
-27.601479211165881
 21
140.97188180796749
 97
0
 75
0
 76
1
 98
0
  0
LINE
  5
4F
100
AcDbEntity
100
AcDbLine
  8
0
 62
6
420
16711935
370
-1
  6
CONTINUOUS
 10
118.02966513176379
 20
62.15527156531553
 30
0.0
 11
120.004605139833
 21
59.698412747977358
 31
0.0
  0
LINE
  5
50
100
AcDbEntity
100
AcDbLine
  8
0
 62
6
420
16711935
370
-1
  6
CONTINUOUS
 10
121.97954514790221
 20
62.15527156531553
 30
0.0
 11
120.00460513983299
 21
59.698412747977443
 31
0.0
  0
LINE
  5
51
100
AcDbEntity
100
AcDbLine
  8
0
 62
6
420
16711935
370
-1
  6
CONTINUOUS
 10
121.97954514790221
 20
62.15527156531553
 30
0.0
 11
120.004605139833
 21
54.784695113300941
 31
0.0
  0
LINE
  5
52
100
AcDbEntity
100
AcDbLine
  8
0
 62
6
420
16711935
370
-1
  6
CONTINUOUS
 10
118.02966513176379
 20
62.15527156531553
 30
0.0
 11
120.004605139833
 21
54.784695113300941
 31
0.0
  0
LINE
  5
53
100
AcDbEntity
100
AcDbLine
  8
0
 62
6
420
16711935
370
-1
  6
CONTINUOUS
 10
120.004605139833
 20
83.518423019027566
 30
0.0
 11
120.004605139833
 21
59.698412747977358
 31
0.0
  0
LINE
  5
54
100
AcDbEntity
100
AcDbLine
  8
0
 62
6
420
16711935
370
-1
  6
CONTINUOUS
 10
120.004605139833
 20
168.19540839549421
 30
0.0
 11
120.004605139833
 21
192.01541866654429
 31
0.0
  0
LINE
  5
55
100
AcDbEntity
100
AcDbLine
  8
0
 62
6
420
16711935
370
-1
  6
CONTINUOUS
 10
-6.2383277574538454
 20
142.94682181603667
 30
0.0
 11
-30.058338028504195
 21
142.94682181603667
 31
0.0
  0
LINE
  5
56
100
AcDbEntity
100
AcDbLine
  8
0
 62
6
420
16711935
370
-1
  6
CONTINUOUS
 10
-27.601479211165881
 20
140.97188180796749
 30
0.0
 11
-30.05833802850411
 21
142.9468218160367
 31
0.0
  0
LINE
  5
57
100
AcDbEntity
100
AcDbLine
  8
0
 62
6
420
16711935
370
-1
  6
CONTINUOUS
 10
-27.601479211165937
 20
144.92176182410606
 30
0.0
 11
-30.05833802850411
 21
142.9468218160367
 31
0.0
  0
LINE
  5
58
100
AcDbEntity
100
AcDbLine
  8
0
 62
6
420
16711935
370
-1
  6
CONTINUOUS
 10
-27.601479211165937
 20
144.92176182410606
 30
0.0
 11
-34.972055663180427
 21
142.94682181603667
 31
0.0
  0
LINE
  5
59
100
AcDbEntity
100
AcDbLine
  8
0
 62
6
420
16711935
370
-1
  6
CONTINUOUS
 10
-27.601479211165881
 20
140.97188180796749
 30
0.0
 11
-34.972055663180427
 21
142.94682181603667
 31
0.0
  0
LINE
  5
5A
100
AcDbEntity
100
AcDbLine
  8
0
 62
250
420
5526612
370
-1
  6
DASHDOT
 10
56.883138691189579
 20
83.518423019027722
 30
0.0
 11
56.883138691189579
 21
7.7726632806555642
 31
0.0
  0
LINE
  5
5B
100
AcDbEntity
100
AcDbLine
  8
0
 62
250
420
5526612
370
-1
  6
DASHDOT
 10
11.43568284816628
 20
231.31687484413743
 30
0.0
 11
102.33059453421271
 21
231.31687484413743
 31
0.0
  0
MTEXT
  5
5C
100
AcDbEntity
100
AcDbMText
  8
0
 62
7
420
16777215
370
-1
  6
CONTINUOUS
 10
303.37361782742732
 20
133.91316489911301
 30
0.0
 40
4.0
 41
100.0
 71
7
 72
2
  1
O
  7
ARIAL
 50
0.0
 73
1
 44
1.0
  0
MTEXT
  5
5D
100
AcDbEntity
100
AcDbMText
  8
0
 62
7
420
16777215
370
-1
  6
CONTINUOUS
 10
186.5184372827932
 20
68.551338875439285
 30
0.0
 40
4.0
 41
100.0
 71
7
 72
2
  1
Y
  7
ARIAL
 50
0.0
 73
1
 44
1.0
  0
MTEXT
  5
5E
100
AcDbEntity
100
AcDbMText
  8
0
 62
7
420
16777215
370
-1
  6
CONTINUOUS
 10
394.28129676333151
 20
80.511492009142685
 30
0.0
 40
4.0
 41
100.0
 71
7
 72
2
  1
X
  7
ARIAL
 50
0.0
 73
1
 44
1.0
  0
MTEXT
  5
5F
100
AcDbEntity
100
AcDbMText
  8
0
 62
7
420
16777215
370
-1
  6
CONTINUOUS
 10
303.71887373168522
 20
252.76816186215061
 30
0.0
 40
4.0
 41
100.0
 71
7
 72
2
  1
Z
  7
ARIAL
 50
0.0
 73
1
 44
1.0
  0
LINE
  5
60
100
AcDbEntity
100
AcDbLine
  8
0
 62
7
420
16777215
370
-1
  6
DASHDOT
 10
301.5696472058454
 20
132.40432232001541
 30
0.0
 11
395.59643466179688
 21
78.117931271286054
 31
0.0
  0
LINE
  5
61
100
AcDbEntity
100
AcDbLine
  8
0
 62
7
420
16777215
370
-1
  6
DASHDOT
 10
301.5696472058454
 20
132.40432232001541
 30
0.0
 11
188.7375022587035
 21
67.260653061540253
 31
0.0
  0
LINE
  5
62
100
AcDbEntity
100
AcDbLine
  8
0
 62
7
420
16777215
370
-1
  6
DASHDOT
 10
301.5696472058454
 20
132.40432232001541
 30
0.0
 11
301.5696472058454
 21
262.78267952218442
 31
0.0
  0
ARC
  5
63
100
AcDbEntity
  8
0-Datos
 62
92
420
42240
370
-1
  6
CONTINUOUS
100
AcDbCircle
 10
56.883138691189544
 20
231.31687484413743
 30
0.0
 40
37.87287986918605
100
AcDbArc
 50
0.0
 51
90.000000000000057
  0
ARC
  5
64
100
AcDbEntity
  8
0-Datos
 62
92
420
42240
370
-1
  6
CONTINUOUS
100
AcDbCircle
 10
56.883138691189544
 20
231.31687484413743
 30
0.0
 40
25.248586579457342
100
AcDbArc
 50
180.0
 51
90.000000000000071
  0
LINE
  5
65
100
AcDbEntity
100
AcDbLine
  8
0-Datos
 62
92
420
42240
370
-1
  6
CONTINUOUS
 10
19.010258822003522
 20
231.31687484413743
 30
0.0
 11
19.010258822003522
 21
168.19540839549421
 31
0.0
  0
LINE
  5
66
100
AcDbEntity
100
AcDbLine
  8
0-Datos
 62
92
420
42240
370
-1
  6
CONTINUOUS
 10
94.756018560375622
 20
231.31687484413743
 30
0.0
 11
94.756018560375622
 21
168.19540839549421
 31
0.0
  0
LINE
  5
67
100
AcDbEntity
100
AcDbLine
  8
0-Datos
 62
92
420
42240
370
-1
  6
CONTINUOUS
 10
-6.2383277574538454
 20
168.19540839549421
 30
0.0
 11
120.004605139833
 21
168.19540839549421
 31
0.0
  0
LINE
  5
68
100
AcDbEntity
100
AcDbLine
  8
0-Datos
 62
92
420
42240
370
-1
  6
CONTINUOUS
 10
-6.2383277574538454
 20
168.19540839549421
 30
0.0
 11
-6.2383277574538454
 21
142.94682181603667
 31
0.0
  0
LINE
  5
69
100
AcDbEntity
100
AcDbLine
  8
0-Datos
 62
92
420
42240
370
-1
  6
CONTINUOUS
 10
120.004605139833
 20
168.19540839549421
 30
0.0
 11
120.004605139833
 21
142.94682181603667
 31
0.0
  0
LINE
  5
6A
100
AcDbEntity
100
AcDbLine
  8
0-Datos
 62
92
420
42240
370
-1
  6
CONTINUOUS
 10
120.004605139833
 20
142.94682181603667
 30
0.0
 11
-6.2383277574538454
 21
142.94682181603667
 31
0.0
  0
LINE
  5
6B
100
AcDbEntity
100
AcDbLine
  8
0-Datos
 62
92
420
42240
370
-1
  6
DASHED2
 10
31.634552111732219
 20
142.94682181603667
 30
0.0
 11
31.634552111732219
 21
168.19540839549421
 31
0.0
  0
LINE
  5
6C
100
AcDbEntity
100
AcDbLine
  8
0-Datos
 62
92
420
42240
370
-1
  6
DASHED2
 10
82.131725270646896
 20
142.94682181603667
 30
0.0
 11
82.131725270646896
 21
168.19540839549421
 31
0.0
  0
LINE
  5
6D
100
AcDbEntity
100
AcDbLine
  8
0-Datos
 62
92
420
42240
370
-1
  6
CONTINUOUS
 10
56.883138691189544
 20
256.56546142359502
 30
0.0
 11
56.883138691189544
 21
269.18975471332368
 31
0.0
  0
LINE
  5
6E
100
AcDbEntity
100
AcDbLine
  8
0-Datos
 62
142
420
31909
370
-1
  6
CONTINUOUS
 10
82.131725270646896
 20
115.07915624334943
 30
0.0
 11
31.634552111732219
 21
115.07915624334943
 31
0.0
  0
LINE
  5
6F
100
AcDbEntity
100
AcDbLine
  8
0-Datos
 62
142
420
31909
370
-1
  6
CONTINUOUS
 10
-6.2383277574538454
 20
83.518423019027722
 30
0.0
 11
-6.2383277574538454
 21
96.142716308756377
 31
0.0
  0
LINE
  5
70
100
AcDbEntity
100
AcDbLine
  8
0-Datos
 62
142
420
31909
370
-1
  6
CONTINUOUS
 10
31.634552111732219
 20
115.07915624334919
 30
0.0
 11
-6.2383277574538454
 21
96.142716308756377
 31
0.0
  0
ARC
  5
71
100
AcDbEntity
  8
0-Datos
 62
142
420
31909
370
-1
  6
CONTINUOUS
100
AcDbCircle
 10
56.883138691189579
 20
83.518423019027722
 30
0.0
 40
63.121466448643424
100
AcDbArc
 50
180.0
 51
0.0
  0
LINE
  5
72
100
AcDbEntity
100
AcDbLine
  8
0-Datos
 62
142
420
31909
370
-1
  6
CONTINUOUS
 10
19.010258822003522
 20
102.45486295362073
 30
0.0
 11
19.010258822003522
 21
64.581983084434668
 31
0.0
  0
LINE
  5
73
100
AcDbEntity
100
AcDbLine
  8
0-Datos
 62
142
420
31909
370
-1
  6
CONTINUOUS
 10
120.004605139833
 20
83.518423019027566
 30
0.0
 11
120.004605139833
 21
96.142716308756377
 31
0.0
  0
LINE
  5
74
100
AcDbEntity
100
AcDbLine
  8
0-Datos
 62
142
420
31909
370
-1
  6
CONTINUOUS
 10
82.131725270646896
 20
115.07915624334943
 30
0.0
 11
120.004605139833
 21
96.142716308756377
 31
0.0
  0
LINE
  5
75
100
AcDbEntity
100
AcDbLine
  8
0-Datos
 62
142
420
31909
370
-1
  6
CONTINUOUS
 10
94.756018560375622
 20
102.45486295362073
 30
0.0
 11
94.756018560375622
 21
64.581983084434668
 31
0.0
  0
LINE
  5
76
100
AcDbEntity
100
AcDbLine
  8
0-Datos
 62
142
420
31909
370
-1
  6
CONTINUOUS
 10
94.756018560375622
 20
102.45486295362073
 30
0.0
 11
19.010258822003522
 21
102.45486295362053
 31
0.0
  0
LINE
  5
77
100
AcDbEntity
100
AcDbLine
  8
0-Datos
 62
142
420
31909
370
-1
  6
CONTINUOUS
 10
94.756018560375622
 20
64.581983084434526
 30
0.0
 11
19.010258822003522
 21
64.581983084434526
 31
0.0
  0
LINE
  5
78
100
AcDbEntity
100
AcDbLine
  8
0-Datos
 62
142
420
31909
370
-1
  6
CONTINUOUS
 10
31.634552111732177
 20
102.45486295362053
 30
0.0
 11
31.634552111732219
 21
64.581983084434526
 31
0.0
  0
LINE
  5
79
100
AcDbEntity
100
AcDbLine
  8
0-Datos
 62
142
420
31909
370
-1
  6
CONTINUOUS
 10
56.883138691189544
 20
102.45486295362053
 30
0.0
 11
56.883138691189544
 21
64.581983084434526
 31
0.0
  0
LINE
  5
7A
100
AcDbEntity
100
AcDbLine
  8
0-Datos
 62
142
420
31909
370
-1
  6
DASHED2
 10
82.131725270646896
 20
102.45486295362053
 30
0.0
 11
82.131725270646896
 21
64.581983084434526
 31
0.0
  0
LINE
  5
7B
100
AcDbEntity
100
AcDbLine
  8
0-Datos
 62
92
420
42240
370
-1
  6
CONTINUOUS
 10
19.010258822003522
 20
231.31687484413743
 30
0.0
 11
31.634552111732177
 21
231.31687484413743
 31
0.0
  0
LINE
  5
7C
100
AcDbEntity
100
AcDbLine
  8
1-Perspectiva
 62
256
370
-1
  6
ByLayer
 10
328.63294107410792
 20
116.7793223200155
 30
0.0
 11
317.8076235268029
 21
123.0293223200154
 31
0.0
  0
LINE
  5
7D
100
AcDbEntity
100
AcDbLine
  8
1-Perspectiva
 62
256
370
-1
  6
ByLayer
 10
225.79242437471041
 20
101.1543223200154
 30
0.0
 11
258.26837701662549
 21
82.404322320015453
 31
0.0
  0
LINE
  5
7E
100
AcDbEntity
100
AcDbLine
  8
1-Perspectiva
 62
256
370
-1
  6
ByLayer
 10
323.22028230045549
 20
119.9043223200154
 30
0.0
 11
258.26837701662549
 21
82.404322320015382
 31
0.0
  0
LINE
  5
7F
100
AcDbEntity
100
AcDbLine
  8
1-Perspectiva
 62
256
370
-1
  6
ByLayer
 10
290.74432965854049
 20
138.6543223200155
 30
0.0
 11
225.79242437471061
 21
101.1543223200153
 31
0.0
  0
LINE
  5
80
100
AcDbEntity
100
AcDbLine
  8
1-Perspectiva
 62
256
370
-1
  6
ByLayer
 10
290.74432965854049
 20
138.6543223200155
 30
0.0
 11
323.22028230045549
 21
119.9043223200155
 31
0.0
  0
LINE
  5
81
100
AcDbEntity
100
AcDbLine
  8
1-Perspectiva
 62
256
370
-1
  6
ByLayer
 10
220.37976560105801
 20
79.279322320015481
 30
0.0
 11
209.55444805375279
 21
85.52932232001541
 31
0.0
  0
LINE
  5
82
100
AcDbEntity
100
AcDbLine
  8
1-Perspectiva
 62
256
370
-1
  6
ByLayer
 10
225.79242437471061
 20
113.6543223200154
 30
0.0
 11
209.55444805375279
 21
85.529322320015424
 31
0.0
  0
LINE
  5
83
100
AcDbEntity
100
AcDbLine
  8
1-Perspectiva
 62
256
370
-1
  6
ByLayer
 10
269.0936945639304
 20
138.6543223200155
 30
0.0
 11
317.8076235268029
 21
148.02932232001541
 31
0.0
  0
ELLIPSE
  5
84
100
AcDbEntity
100
AcDbEllipse
  8
1-Perspectiva
 62
256
370
-1
  6
ByLayer
 10
274.50635333758288
 20
110.5293223200154
 30
0.0
 11
76.546554461970871
 21
-0.0000000000000379
 31
0.0
 40
0.5773502691896522
 41
3.9269908169872219
 42
7.0685834705770301
  0
LINE
  5
85
100
AcDbEntity
100
AcDbLine
  8
1-Perspectiva
 62
256
370
-1
  6
ByLayer
 10
328.63294107410792
 20
141.7793223200153
 30
0.0
 11
317.80762352680279
 21
148.0293223200153
 31
0.0
  0
LINE
  5
86
100
AcDbEntity
100
AcDbLine
  8
1-Perspectiva
 62
256
370
-1
  6
ByLayer
 10
220.3797656010581
 20
54.27932232001551
 30
0.0
 11
209.55444805375291
 21
60.52932232001546
 31
0.0
  0
LINE
  5
87
100
AcDbEntity
100
AcDbLine
  8
1-Perspectiva
 62
256
370
-1
  6
ByLayer
 10
225.79242437471061
 20
88.654322320015453
 30
0.0
 11
209.55444805375279
 21
60.52932232001551
 31
0.0
  0
LINE
  5
88
100
AcDbEntity
100
AcDbLine
  8
1-Perspectiva
 62
256
370
-1
  6
ByLayer
 10
269.0936945639304
 20
113.6543223200155
 30
0.0
 11
317.8076235268029
 21
123.0293223200154
 31
0.0
  0
LINE
  5
89
100
AcDbEntity
100
AcDbLine
  8
1-Perspectiva
 62
256
370
-1
  6
ByLayer
 10
209.55444805375279
 20
60.52932232001551
 30
0.0
 11
209.55444805375279
 21
85.529322320015424
 31
0.0
  0
LINE
  5
8A
100
AcDbEntity
100
AcDbLine
  8
1-Perspectiva
 62
256
370
-1
  6
ByLayer
 10
351.05290779955129
 20
85.52931106510195
 30
0.0
 11
351.05290779955129
 21
110.52932686001721
 31
0.0
  0
LINE
  5
8B
100
AcDbEntity
100
AcDbLine
  8
1-Perspectiva
 62
256
370
-1
  6
ByLayer
 10
225.79242437471061
 20
113.6543223200154
 30
0.0
 11
269.0936945639304
 21
138.6543223200155
 31
0.0
  0
LINE
  5
8C
100
AcDbEntity
100
AcDbLine
  8
1-Perspectiva
 62
256
370
-1
  6
ByLayer
 10
269.09369456393028
 20
113.6543223200155
 30
0.0
 11
225.79242437471041
 21
88.65432232001541
 31
0.0
  0
LINE
  5
8D
100
AcDbEntity
100
AcDbLine
  8
1-Perspectiva
 62
256
370
-1
  6
ByLayer
 10
258.26837701662549
 20
144.90432232001541
 30
0.0
 11
258.26837701662549
 21
82.404322320015382
 31
0.0
  0
LINE
  5
8E
100
AcDbEntity
100
AcDbLine
  8
1-Perspectiva
 62
256
370
-1
  6
ByLayer
 10
290.74432965854049
 20
188.65432232001541
 30
0.0
 11
290.74432965854049
 21
201.15432232001541
 31
0.0
  0
LINE
  5
8F
100
AcDbEntity
100
AcDbLine
  8
1-Perspectiva
 62
256
370
-1
  6
ByLayer
 10
258.26837701662549
 20
144.90432232001541
 30
0.0
 11
269.0936945639304
 21
151.15432232001541
 31
0.0
  0
ELLIPSE
  5
90
100
AcDbEntity
100
AcDbEllipse
  8
1-Perspectiva
 62
256
370
-1
  6
ByLayer
 10
290.74432965854049
 20
163.65432232001541
 30
0.0
 11
22.96396633859052
 21
39.77475644174374
 31
0.0
 40
0.5773502691896116
 41
5.4977871437820989
 42
7.0685834705770034
  0
ELLIPSE
  5
91
100
AcDbEntity
100
AcDbEllipse
  8
1-Perspectiva
 62
256
370
-1
  6
ByLayer
 10
258.26837701662572
 20
182.4043223200155
 30
0.0
 11
15.30931089239367
 21
26.51650429449581
 31
0.0
 40
0.5773502691896124
 41
2.3561944901923071
 42
7.0685834705770061
  0
LINE
  5
92
100
AcDbEntity
100
AcDbLine
  8
1-Perspectiva
 62
256
370
-1
  6
ByLayer
 10
225.79242437471041
 20
163.65432232001541
 30
0.0
 11
225.79242437471041
 21
88.654322320015424
 31
0.0
  0
LINE
  5
93
100
AcDbEntity
100
AcDbLine
  8
1-Perspectiva
 62
256
370
-1
  6
ByLayer
 10
258.26837701662549
 20
207.4043223200155
 30
0.0
 11
258.26837701662549
 21
219.9043223200153
 31
0.0
  0
LINE
  5
94
100
AcDbEntity
100
AcDbLine
  8
1-Perspectiva
 62
256
370
-1
  6
ByLayer
 10
225.79242437471041
 20
163.65432232001541
 30
0.0
 11
236.6177419220154
 21
169.9043223200155
 31
0.0
  0
LINE
  5
95
100
AcDbEntity
100
AcDbLine
  8
1-Perspectiva
 62
256
370
-1
  6
ByLayer
 10
313.70829297657531
 20
203.4290805056774
 30
0.0
 11
281.23234951052092
 21
222.17907520799039
 31
0.0
  0
LINE
  5
96
100
AcDbEntity
100
AcDbLine
  8
1-Perspectiva
 62
256
370
-1
  6
ByLayer
 10
258.26837701662549
 20
144.90432232001541
 30
0.0
 11
225.79242437471041
 21
163.65432232001541
 31
0.0
  0
LINE
  5
97
100
AcDbEntity
100
AcDbLine
  8
1-Perspectiva
 62
256
370
-1
  6
ByLayer
 10
236.6177419220154
 20
169.9043223200155
 30
0.0
 11
269.09369456393063
 21
151.1543223200153
 31
0.0
  0
LINE
  5
98
100
AcDbEntity
100
AcDbLine
  8
1-Perspectiva
 62
256
370
-1
  6
ByLayer
 10
290.74432965854038
 20
201.1543223200155
 30
0.0
 11
258.26837701662538
 21
219.9043223200153
 31
0.0
  0
LINE
  5
99
100
AcDbEntity
100
AcDbLine
  8
1-Perspectiva
 62
256
370
-1
  6
ByLayer
 10
323.22028230045521
 20
182.40432232001541
 30
0.0
 11
323.22028230045521
 21
119.9043223200154
 31
0.0
  0
LINE
  5
9A
100
AcDbEntity
100
AcDbLine
  8
1-Perspectiva
 62
256
370
-1
  6
ByLayer
 10
290.74432965854038
 20
188.65432232001521
 30
0.0
 11
258.26837701662549
 21
207.40432232001541
 31
0.0
  0
LINE
  5
9B
100
AcDbEntity
100
AcDbLine
  8
1-Perspectiva
 62
256
370
-1
  6
ByLayer
 10
269.0936945639304
 20
138.6543223200155
 30
0.0
 11
269.0936945639304
 21
113.6543223200155
 31
0.0
  0
LINE
  5
9C
100
AcDbEntity
100
AcDbLine
  8
1-Perspectiva
 62
256
370
-1
  6
ByLayer
 10
317.8076235268029
 20
148.02932232001541
 30
0.0
 11
317.8076235268029
 21
123.0293223200154
 31
0.0
  0
LINE
  5
9D
100
AcDbEntity
100
AcDbLine
  8
1-Perspectiva
 62
256
370
-1
  6
ByLayer
 10
290.74432965854049
 20
201.1543223200155
 30
0.0
 11
290.74432965854049
 21
138.6543223200155
 31
0.0
  0
ELLIPSE
  5
9E
100
AcDbEntity
100
AcDbEllipse
  8
1-Perspectiva
 62
256
370
-1
  6
ByLayer
 10
258.26837701662549
 20
182.40432232001541
 30
0.0
 11
22.96396633859052
 21
39.77475644174374
 31
0.0
 40
0.5773502691896116
 41
5.4977871437820927
 42
6.2831853071795871
  0
ELLIPSE
  5
9F
100
AcDbEntity
100
AcDbEllipse
  8
1-Perspectiva
 62
256
370
-1
  6
ByLayer
 10
258.26837701662549
 20
182.40432232001541
 30
0.0
 11
22.96396633859052
 21
39.77475644174374
 31
0.0
 40
0.5773502691896116
 41
0.0000000000000099
 42
0.7853981633974138
  0
ELLIPSE
  5
A0
100
AcDbEntity
100
AcDbEllipse
  8
1-Perspectiva
 62
256
370
-1
  6
ByLayer
 10
290.74432965854049
 20
163.65432232001541
 30
0.0
 11
15.30931089239367
 21
26.51650429449581
 31
0.0
 40
0.5773502691896124
 41
2.3561944901923071
 42
7.0685834705770061
  0
LINE
  5
A1
100
AcDbEntity
100
AcDbLine
  8
1-Perspectiva
 62
256
370
-1
  6
ByLayer
 10
290.74432965854044
 20
201.15432468102856
 30
0.0
 11
290.74432965854038
 21
138.6543223200155
 31
0.0
  0
ELLIPSE
  5
A2
100
AcDbEntity
100
AcDbEllipse
  8
1-Perspectiva
 62
256
370
-1
  6
ByLayer
 10
274.50635333758299
 20
85.529322320015467
 30
0.0
 11
76.546554461970871
 21
-0.0000000000000379
 31
0.0
 40
0.5773502691896522
 41
3.9269908169872179
 42
0.7853981633974494
  0
ENDSEC
  0
SECTION
  2
OBJECTS
  0
DICTIONARY
  5
C
100
AcDbDictionary
280
0
281
1
  3
ACAD_GROUP
350
D
  3
ACAD_LAYOUT
350
1A
  3
ACAD_MLINESTYLE
350
17
  3
ACAD_PLOTSETTINGS
350
19
  3
ACAD_PLOTSTYLENAME
350
E
  3
AcDbVariableDictionary
350
A3
  0
DICTIONARY
  5
D
100
AcDbDictionary
280
0
281
1
  0
ACDBDICTIONARYWDFLT
  5
E
100
AcDbDictionary
281
1
  3
Normal
350
F
100
AcDbDictionaryWithDefault
340
F
  0
ACDBPLACEHOLDER
  5
F
  0
DICTIONARY
  5
17
100
AcDbDictionary
280
0
281
1
  3
Standard
350
18
  0
MLINESTYLE
  5
18
100
AcDbMlineStyle
  2
STANDARD
 70
0
  3

 62
256
 51
90.0
 52
90.0
 71
2
 49
0.5
 62
256
  6
BYLAYER
 49
-0.5
 62
256
  6
BYLAYER
  0
DICTIONARY
  5
19
100
AcDbDictionary
280
0
281
1
  0
DICTIONARY
  5
1A
100
AcDbDictionary
281
1
  3
Layout1
350
1E
  3
Layout2
350
26
  3
Model
350
22
  0
LAYOUT
  5
1E
100
AcDbPlotSettings
  1

  2
C:\Program Files\AutoCAD 2002\plotters\DWF ePlot (optimized for plotting).pc3
  4

  6

 40
0.0
 41
0.0
 42
0.0
 43
0.0
 44
0.0
 45
0.0
 46
0.0
 47
0.0
 48
0.0
 49
0.0
140
0.0
141
0.0
142
1.0
143
1.0
 70
688
 72
0
 73
0
 74
5
  7

 75
16
147
1.0
148
0.0
149
0.0
100
AcDbLayout
  1
Layout1
 70
1
 71
1
 10
0.0
 20
0.0
 11
420.0
 21
297.0
 12
0.0
 22
0.0
 32
0.0
 14
100000000000000000000.0
 24
100000000000000000000.0
 34
100000000000000000000.0
 15
-100000000000000000000.0
 25
-100000000000000000000.0
 35
-100000000000000000000.0
146
0.0
 13
0.0
 23
0.0
 33
0.0
 16
1.0
 26
0.0
 36
0.0
 17
0.0
 27
1.0
 37
0.0
 76
0
330
1B
  0
LAYOUT
  5
22
100
AcDbPlotSettings
  1

  2
C:\Program Files\AutoCAD 2002\plotters\DWF ePlot (optimized for plotting).pc3
  4

  6

 40
0.0
 41
0.0
 42
0.0
 43
0.0
 44
0.0
 45
0.0
 46
0.0
 47
0.0
 48
0.0
 49
0.0
140
0.0
141
0.0
142
1.0
143
1.0
 70
1712
 72
0
 73
0
 74
0
  7

 75
0
147
1.0
148
0.0
149
0.0
100
AcDbLayout
  1
Model
 70
1
 71
0
 10
0.0
 20
0.0
 11
12.0
 21
9.0
 12
0.0
 22
0.0
 32
0.0
 14
0.0
 24
0.0
 34
0.0
 15
0.0
 25
0.0
 35
0.0
146
0.0
 13
0.0
 23
0.0
 33
0.0
 16
1.0
 26
0.0
 36
0.0
 17
0.0
 27
1.0
 37
0.0
 76
0
330
1F
  0
LAYOUT
  5
26
100
AcDbPlotSettings
  1

  2
C:\Program Files\AutoCAD 2002\plotters\DWF ePlot (optimized for plotting).pc3
  4

  6

 40
0.0
 41
0.0
 42
0.0
 43
0.0
 44
0.0
 45
0.0
 46
0.0
 47
0.0
 48
0.0
 49
0.0
140
0.0
141
0.0
142
1.0
143
1.0
 70
688
 72
0
 73
0
 74
5
  7

 75
16
147
1.0
148
0.0
149
0.0
100
AcDbLayout
  1
Layout2
 70
1
 71
2
 10
0.0
 20
0.0
 11
12.0
 21
9.0
 12
0.0
 22
0.0
 32
0.0
 14
0.0
 24
0.0
 34
0.0
 15
0.0
 25
0.0
 35
0.0
146
0.0
 13
0.0
 23
0.0
 33
0.0
 16
1.0
 26
0.0
 36
0.0
 17
0.0
 27
1.0
 37
0.0
 76
0
330
23
  0
DICTIONARY
  5
A3
100
AcDbDictionary
281
1
  3
DIMASSOC
350
A5
  3
HIDETEXT
350
A4
  0
DICTIONARYVAR
  5
A4
100
DictionaryVariables
280
0
  1
2
  0
DICTIONARYVAR
  5
A5
100
DictionaryVariables
280
0
  1
1
  0
ENDSEC
  0
EOF
