999
dxflib 2.2.0.0
  0
SECTION
  2
HEADER
  9
$ACADVER
  1
AC1015
  9
$HANDSEED
  5
FFFF
  9
$DIMLIM
 70
0
  9
$DIMLUNIT
 70
2
  9
$DIMTIX
 70
0
  9
$AUNITS
 70
0
  9
$QTEXTMODE
 70
0
  9
$COORDS
 70
0
  9
$USERR1
 40
0.0
  9
$USERR2
 40
0.0
  9
$USERR3
 40
0.0
  9
$USERR4
 40
0.0
  9
$USERR5
 40
0.0
  9
$LIMMAX
 10
870.63067477434174
 20
376.08441206946833
  9
$PELEVATION
 40
0.0
  9
$DIMADEC
 70
2
  9
$TILEMODE
 70
1
  9
$PEXTMIN
 10
100000000000000000000.0
 20
100000000000000000000.0
 30
100000000000000000000.0
  9
$TDUSRTIMER
 40
0.0000029861
  9
$DIMSOXD
 70
0
  9
$SPLINETYPE
 70
6
  9
$DIMLFAC
 40
1.0
  9
$DIMSE1
 70
0
  9
$FILLETRAD
 40
0.1
  9
$DIMSE2
 70
0
  9
$TEXTSTYLE
  7
STANDARD
  9
$DIMTSZ
 40
0.0
  9
$PUCSXDIR
 10
1.0
 20
0.0
 30
0.0
  9
$PLIMMAX
 10
0.42
 20
0.297
  9
$DIMTM
 40
0.0
  9
$UCSORG
 10
0.0
 20
0.0
 30
0.0
  9
$DIMTP
 40
0.0
  9
$PSLTSCALE
 70
1
  9
$ANGBASE
 50
0.0
  9
$PUCSYDIR
 10
0.0
 20
1.0
 30
0.0
  9
$DIMASZ
 40
0.5
  9
$UNITMODE
 70
0
  9
$INSBASE
 10
0.0
 20
0.0
 30
0.0
  9
$EXTMAX
 10
19.491295548262681
 20
8.3393889541928434
 30
0.00000001
  9
$ELEVATION
 40
0.0
  9
$TDCREATE
 40
2455690.6004535421
  9
$CELTYPE
  6
BYLAYER
  9
$GRIDUNIT
 10
0.0
 20
0.0
  9
$MENU
  1
.
  9
$ANGDIR
 70
0
  9
$LTSCALE
 40
8.0
  9
$DIMAZIN
 70
8
  9
$TDUPDATE
 40
2455690.6004535421
  9
$DIMCEN
 40
0.09
  9
$DIMTVP
 40
0.0
  9
$TRACEWID
 40
0.05
  9
$DIMSTYLE
  2
STANDARD
  9
$SKETCHINC
 40
0.1
  9
$FILLMODE
 70
1
  9
$PLINEGEN
 70
0
  9
$THICKNESS
 40
0.0
  9
$PUCSORG
 10
0.0
 20
0.0
 30
0.0
  9
$INSUNITS
 70
6
  9
$PLINEWID
 40
0.0
  9
$PEXTMAX
 10
-100000000000000000000.0
 20
-100000000000000000000.0
 30
-100000000000000000000.0
  9
$UCSYDIR
 10
0.0
 20
1.0
 30
0.0
  9
$GRIDMODE
 70
0
  9
$PDSIZE
 40
0.0
  9
$ATTDIA
 70
0
  9
$HANDLING
 70
1
  9
$DIMTAD
 70
0
  9
$MAXACTVP
 70
64
  9
$UCSXDIR
 10
1.0
 20
0.0
 30
0.0
  9
$DIMSAH
 70
0
  9
$USERI1
 70
0
  9
$USERI2
 70
0
  9
$USERI3
 70
0
  9
$SKPOLY
 70
0
  9
$USERI4
 70
0
  9
$USERI5
 70
0
  9
$LIMMIN
 10
-6.3378291626663401
 20
-243.994328088012
  9
$MIRRTEXT
 70
0
  9
$TEXTSIZE
 40
0.2625000000000001
  9
$DRAGMODE
 70
2
  9
$DIMGAP
 40
0.5
  9
$LUPREC
 70
2
  9
$CECOLOR
 62
250
  9
$WORLDVIEW
 70
1
  9
$PLIMCHECK
 70
0
  9
$DIMTFAC
 40
1.0
  9
$USRTIMER
 70
1
  9
$SURFU
 70
6
  9
$SURFV
 70
6
  9
$ATTREQ
 70
1
  9
$DIMASO
 70
1
  9
$DIMDLE
 40
0.0
  9
$EXTMIN
 10
2.4239928234788031
 20
-4.1530563792049859
 30
-0.00000001
  9
$DIMDLI
 40
0.38
  9
$LUNITS
 70
2
  9
$DIMCLRD
 70
0
  9
$SHADEDIF
 70
70
  9
$DIMCLRE
 70
0
  9
$SPLINESEGS
 70
8
  9
$DIMRND
 40
0.0
  9
$DIMALT
 70
0
  9
$DIMCLRT
 70
0
  9
$DIMTOH
 70
1
  9
$VISRETAIN
 70
1
  9
$BLIPMODE
 70
0
  9
$SHADEDGE
 70
3
  9
$DIMTOL
 70
0
  9
$SURFTYPE
 70
6
  9
$CHAMFERA
 40
0.005
  9
$SURFTAB1
 70
6
  9
$CHAMFERB
 40
0.005
  9
$SURFTAB2
 70
6
  9
$AUPREC
 70
2
  9
$OSMODE
 70
0
  9
$PDMODE
 70
0
  9
$SPLFRAME
 70
0
  9
$PLIMMIN
 10
0.0
 20
0.0
  9
$LIMCHECK
 70
0
  9
$PINSBASE
 10
-0.0143501775336823
 20
0.1085237552500957
 30
0.0
  9
$ORTHOMODE
 70
0
  9
$PSVPSCALE
 40
1.0
  9
$CLAYER
  8
Cocina
  9
$DIMSHO
 70
1
  9
$DIMTOFL
 70
0
  9
$DIMTXT
 40
0.5
  9
$DIMEXE
 40
0.5
  9
$TDINDWG
 40
0.0000029861
  9
$REGENMODE
 70
1
  9
$ATTMODE
 70
1
  9
$DIMTIH
 70
1
  9
$DIMZIN
 70
0
  9
$DIMSCALE
 40
1.0
  9
$DIMALTD
 70
2
  9
$DIMAUNIT
 70
0
  9
$DIMEXO
 40
0.125
  9
$DIMALTF
 40
25.399999999999999
  9
$CLAYER
  8
Cocina
  0
ENDSEC
  0
SECTION
  2
TABLES
  0
TABLE
  2
VPORT
  5
8
100
AcDbSymbolTable
 70
1
  0
VPORT
  5
30
100
AcDbSymbolTableRecord
100
AcDbViewportTableRecord
  2
*Active
 70
0
 10
0.0
 20
0.0
 11
1.0
 21
1.0
 12
286.30555555555549
 22
148.5
 13
0.0
 23
0.0
 14
10.0
 24
10.0
 15
10.0
 25
10.0
 16
0.0
 26
0.0
 36
1.0
 17
0.0
 27
0.0
 37
0.0
 40
297.0
 41
1.92798353909465
 42
50.0
 43
0.0
 44
0.0
 50
0.0
 51
0.0
 71
0
 72
100
 73
1
 74
3
 75
1
 76
1
 77
0
 78
0
281
0
 65
1
110
0.0
120
0.0
130
0.0
111
1.0
121
0.0
131
0.0
112
0.0
122
1.0
132
0.0
 79
0
146
0.0
  0
ENDTAB
  0
TABLE
  2
LTYPE
  5
5
100
AcDbSymbolTable
 70
21
  0
LTYPE
  5
14
100
AcDbSymbolTableRecord
100
AcDbLinetypeTableRecord
  2
ByBlock
 70
0
  3

 72
65
 73
0
 40
0.0
  0
LTYPE
  5
15
100
AcDbSymbolTableRecord
100
AcDbLinetypeTableRecord
  2
ByLayer
 70
0
  3

 72
65
 73
0
 40
0.0
  0
LTYPE
  5
16
100
AcDbSymbolTableRecord
100
AcDbLinetypeTableRecord
  2
CONTINUOUS
 70
0
  3
Solid line
 72
65
 73
0
 40
0.0
  0
LTYPE
  5
31
100
AcDbSymbolTableRecord
100
AcDbLinetypeTableRecord
  2
DOT
 70
0
  3
Dot . . . . . . . . . . . . . . . . . . . . . .
 72
65
 73
2
 40
6.3499999999999996
 49
0.0
 74
0
 49
-6.3499999999999996
 74
0
  0
LTYPE
  5
32
100
AcDbSymbolTableRecord
100
AcDbLinetypeTableRecord
  2
DOT2
 70
0
  3
Dot (.5x) .....................................
 72
65
 73
2
 40
3.1749999999999998
 49
0.0
 74
0
 49
-3.1749999999999998
 74
0
  0
LTYPE
  5
33
100
AcDbSymbolTableRecord
100
AcDbLinetypeTableRecord
  2
DOTX2
 70
0
  3
Dot (2x) .  .  .  .  .  .  .  .  .  .  .  .  .
 72
65
 73
2
 40
12.699999999999999
 49
0.0
 74
0
 49
-12.699999999999999
 74
0
  0
LTYPE
  5
34
100
AcDbSymbolTableRecord
100
AcDbLinetypeTableRecord
  2
DASHED
 70
0
  3
Dashed __ __ __ __ __ __ __ __ __ __ __ __ __ _
 72
65
 73
2
 40
19.050000000000001
 49
12.699999999999999
 74
0
 49
-6.3499999999999996
 74
0
  0
LTYPE
  5
35
100
AcDbSymbolTableRecord
100
AcDbLinetypeTableRecord
  2
DASHED2
 70
0
  3
Dashed (.5x) _ _ _ _ _ _ _ _ _ _ _ _ _ _ _ _ _
 72
65
 73
2
 40
9.5250000000000004
 49
6.3499999999999996
 74
0
 49
-3.1749999999999998
 74
0
  0
LTYPE
  5
36
100
AcDbSymbolTableRecord
100
AcDbLinetypeTableRecord
  2
DASHEDX2
 70
0
  3
Dashed (2x) ____  ____  ____  ____  ____  ___
 72
65
 73
2
 40
38.100000000000001
 49
25.399999999999999
 74
0
 49
-12.699999999999999
 74
0
  0
LTYPE
  5
37
100
AcDbSymbolTableRecord
100
AcDbLinetypeTableRecord
  2
DASHDOT
 70
0
  3
Dash dot __ . __ . __ . __ . __ . __ . __ . __
 72
65
 73
4
 40
25.399999999999999
 49
12.699999999999999
 74
0
 49
-6.3499999999999996
 74
0
 49
0.0
 74
0
 49
-6.3499999999999996
 74
0
  0
LTYPE
  5
38
100
AcDbSymbolTableRecord
100
AcDbLinetypeTableRecord
  2
DASHDOT2
 70
0
  3
Dash dot (.5x) _._._._._._._._._._._._._._._.
 72
65
 73
4
 40
12.699999999999999
 49
6.3499999999999996
 74
0
 49
-3.1749999999999998
 74
0
 49
0.0
 74
0
 49
-3.1749999999999998
 74
0
  0
LTYPE
  5
39
100
AcDbSymbolTableRecord
100
AcDbLinetypeTableRecord
  2
DASHDOTX2
 70
0
  3
Dash dot (2x) ____  .  ____  .  ____  .  ___
 72
65
 73
4
 40
50.799999999999997
 49
25.399999999999999
 74
0
 49
-12.699999999999999
 74
0
 49
0.0
 74
0
 49
-12.699999999999999
 74
0
  0
LTYPE
  5
3A
100
AcDbSymbolTableRecord
100
AcDbLinetypeTableRecord
  2
DIVIDE
 70
0
  3
Divide ____ . . ____ . . ____ . . ____ . . ____
 72
65
 73
6
 40
31.75
 49
12.699999999999999
 74
0
 49
-6.3499999999999996
 74
0
 49
0.0
 74
0
 49
-6.3499999999999996
 74
0
 49
0.0
 74
0
 49
-6.3499999999999996
 74
0
  0
LTYPE
  5
3B
100
AcDbSymbolTableRecord
100
AcDbLinetypeTableRecord
  2
DIVIDE2
 70
0
  3
Divide (.5x) __..__..__..__..__..__..__..__.._
 72
65
 73
6
 40
15.875
 49
6.3499999999999996
 74
0
 49
-3.1749999999999998
 74
0
 49
0.0
 74
0
 49
-3.1749999999999998
 74
0
 49
0.0
 74
0
 49
-3.1749999999999998
 74
0
  0
LTYPE
  5
3C
100
AcDbSymbolTableRecord
100
AcDbLinetypeTableRecord
  2
DIVIDEX2
 70
0
  3
Divide (2x) ________  .  .  ________  .  .  _
 72
65
 73
6
 40
63.5
 49
25.399999999999999
 74
0
 49
-12.699999999999999
 74
0
 49
0.0
 74
0
 49
-12.699999999999999
 74
0
 49
0.0
 74
0
 49
-12.699999999999999
 74
0
  0
LTYPE
  5
3D
100
AcDbSymbolTableRecord
100
AcDbLinetypeTableRecord
  2
CENTER
 70
0
  3
Center ____ _ ____ _ ____ _ ____ _ ____ _ ____
 72
65
 73
4
 40
50.799999999999997
 49
31.75
 74
0
 49
-6.3499999999999996
 74
0
 49
6.3499999999999996
 74
0
 49
-6.3499999999999996
 74
0
  0
LTYPE
  5
3E
100
AcDbSymbolTableRecord
100
AcDbLinetypeTableRecord
  2
CENTER2
 70
0
  3
Center (.5x) ___ _ ___ _ ___ _ ___ _ ___ _ ___
 72
65
 73
4
 40
28.574999999999999
 49
19.050000000000001
 74
0
 49
-3.1749999999999998
 74
0
 49
3.1749999999999998
 74
0
 49
-3.1749999999999998
 74
0
  0
LTYPE
  5
3F
100
AcDbSymbolTableRecord
100
AcDbLinetypeTableRecord
  2
CENTERX2
 70
0
  3
Center (2x) ________  __  ________  __  _____
 72
65
 73
4
 40
101.59999999999999
 49
63.5
 74
0
 49
-12.699999999999999
 74
0
 49
12.699999999999999
 74
0
 49
-12.699999999999999
 74
0
  0
LTYPE
  5
40
100
AcDbSymbolTableRecord
100
AcDbLinetypeTableRecord
  2
BORDER
 70
0
  3
Border __ __ . __ __ . __ __ . __ __ . __ __ .
 72
65
 73
6
 40
44.450000000000003
 49
12.699999999999999
 74
0
 49
-6.3499999999999996
 74
0
 49
12.699999999999999
 74
0
 49
-6.3499999999999996
 74
0
 49
0.0
 74
0
 49
-6.3499999999999996
 74
0
  0
LTYPE
  5
41
100
AcDbSymbolTableRecord
100
AcDbLinetypeTableRecord
  2
BORDER2
 70
0
  3
Border (.5x) __.__.__.__.__.__.__.__.__.__.__.
 72
65
 73
6
 40
22.225000000000001
 49
6.3499999999999996
 74
0
 49
-3.1749999999999998
 74
0
 49
6.3499999999999996
 74
0
 49
-3.1749999999999998
 74
0
 49
0.0
 74
0
 49
-3.1749999999999998
 74
0
  0
LTYPE
  5
42
100
AcDbSymbolTableRecord
100
AcDbLinetypeTableRecord
  2
BORDERX2
 70
0
  3
Border (2x) ____  ____  .  ____  ____  .  ___
 72
65
 73
6
 40
88.900000000000006
 49
25.399999999999999
 74
0
 49
-12.699999999999999
 74
0
 49
25.399999999999999
 74
0
 49
-12.699999999999999
 74
0
 49
0.0
 74
0
 49
-12.699999999999999
 74
0
  0
ENDTAB
  0
TABLE
  2
LAYER
  5
2
100
AcDbSymbolTable
 70
9
  0
LAYER
  5
10
100
AcDbSymbolTableRecord
100
AcDbLayerTableRecord
  2
0
 70
0
 62
7
420
0
  6
CONTINUOUS
370
0
390
F
  0
LAYER
  5
43
100
AcDbSymbolTableRecord
100
AcDbLayerTableRecord
  2
Muros y tabiques
 70
0
 62
5
420
255
  6
CONTINUOUS
370
0
390
F
  0
LAYER
  5
44
100
AcDbSymbolTableRecord
100
AcDbLayerTableRecord
  2
sanitarios
 70
0
 62
92
420
45056
  6
CONTINUOUS
370
0
390
F
  0
LAYER
  5
45
100
AcDbSymbolTableRecord
100
AcDbLayerTableRecord
  2
ventanas
 70
0
 62
5
420
255
  6
CONTINUOUS
370
0
390
F
  0
LAYER
  5
46
100
AcDbSymbolTableRecord
100
AcDbLayerTableRecord
  2
puertas
 70
0
 62
7
420
0
  6
CONTINUOUS
370
0
390
F
  0
LAYER
  5
47
100
AcDbSymbolTableRecord
100
AcDbLayerTableRecord
  2
muebles-bloques
 70
0
 62
1
420
16711680
  6
CONTINUOUS
370
0
390
F
  0
LAYER
  5
48
100
AcDbSymbolTableRecord
100
AcDbLayerTableRecord
  2
Cocina
 70
0
 62
92
420
45056
  6
CONTINUOUS
370
0
390
F
  0
LAYER
  5
49
100
AcDbSymbolTableRecord
100
AcDbLayerTableRecord
  2
muebles
 70
0
 62
1
420
16711680
  6
CONTINUOUS
370
0
390
F
  0
LAYER
  5
4A
100
AcDbSymbolTableRecord
100
AcDbLayerTableRecord
  2
leyenda
 70
0
 62
7
420
0
  6
CONTINUOUS
370
0
390
F
  0
ENDTAB
  0
TABLE
  2
STYLE
  5
3
100
AcDbSymbolTable
 70
1
  0
STYLE
  5
11
100
AcDbSymbolTableRecord
100
AcDbTextStyleTableRecord
  2
Standard
 70
0
 40
0.0
 41
0.75
 50
0.0
 71
0
 42
2.5
  3
txt
  4

  0
ENDTAB
  0
TABLE
  2
VIEW
  5
6
100
AcDbSymbolTable
 70
0
  0
ENDTAB
  0
TABLE
  2
UCS
  5
7
100
AcDbSymbolTable
 70
0
  0
ENDTAB
  0
TABLE
  2
APPID
  5
9
100
AcDbSymbolTable
 70
1
  0
APPID
  5
12
100
AcDbSymbolTableRecord
100
AcDbRegAppTableRecord
  2
ACAD
 70
0
  0
ENDTAB
  0
TABLE
  2
DIMSTYLE
  5
A
100
AcDbSymbolTable
 70
1
100
AcDbDimStyleTable
 71
0
  0
DIMSTYLE
105
27
100
AcDbSymbolTableRecord
100
AcDbDimStyleTableRecord
  2
Standard
 41
0.5
 42
0.125
 43
3.75
 44
0.5
 70
0
 73
0
 74
0
 77
1
 78
8
140
0.5
141
2.5
143
0.03937007874016
147
0.5
171
3
172
1
271
2
272
2
274
3
278
44
283
0
284
8
340
11
  0
ENDTAB
  0
TABLE
  2
BLOCK_RECORD
  5
1
100
AcDbSymbolTable
 70
1
  0
BLOCK_RECORD
  5
1F
100
AcDbSymbolTableRecord
100
AcDbBlockTableRecord
  2
*Model_Space
340
22
  0
BLOCK_RECORD
  5
1B
100
AcDbSymbolTableRecord
100
AcDbBlockTableRecord
  2
*Paper_Space
340
1E
  0
BLOCK_RECORD
  5
23
100
AcDbSymbolTableRecord
100
AcDbBlockTableRecord
  2
*Paper_Space0
340
26
  0
BLOCK_RECORD
  5
4B
100
AcDbSymbolTableRecord
100
AcDbBlockTableRecord
  2
Armario 3 cuerpos
340
0
  0
BLOCK_RECORD
  5
4C
100
AcDbSymbolTableRecord
100
AcDbBlockTableRecord
  2
Silla escritorio
340
0
  0
BLOCK_RECORD
  5
4D
100
AcDbSymbolTableRecord
100
AcDbBlockTableRecord
  2
Mesa escritorio
340
0
  0
BLOCK_RECORD
  5
4E
100
AcDbSymbolTableRecord
100
AcDbBlockTableRecord
  2
Cama 80
340
0
  0
BLOCK_RECORD
  5
4F
100
AcDbSymbolTableRecord
100
AcDbBlockTableRecord
  2
Mesilla noche
340
0
  0
BLOCK_RECORD
  5
50
100
AcDbSymbolTableRecord
100
AcDbBlockTableRecord
  2
Alfombra
340
0
  0
BLOCK_RECORD
  5
51
100
AcDbSymbolTableRecord
100
AcDbBlockTableRecord
  2
Mesa cocina
340
0
  0
BLOCK_RECORD
  5
52
100
AcDbSymbolTableRecord
100
AcDbBlockTableRecord
  2
Frigorifico
340
0
  0
BLOCK_RECORD
  5
53
100
AcDbSymbolTableRecord
100
AcDbBlockTableRecord
  2
Mesa comedor
340
0
  0
BLOCK_RECORD
  5
54
100
AcDbSymbolTableRecord
100
AcDbBlockTableRecord
  2
Mesa auxiliar
340
0
  0
BLOCK_RECORD
  5
55
100
AcDbSymbolTableRecord
100
AcDbBlockTableRecord
  2
Sofa rinconera
340
0
  0
BLOCK_RECORD
  5
56
100
AcDbSymbolTableRecord
100
AcDbBlockTableRecord
  2
Mesa redonda
340
0
  0
BLOCK_RECORD
  5
57
100
AcDbSymbolTableRecord
100
AcDbBlockTableRecord
  2
Butaca
340
0
  0
BLOCK_RECORD
  5
58
100
AcDbSymbolTableRecord
100
AcDbBlockTableRecord
  2
Aparador
340
0
  0
BLOCK_RECORD
  5
59
100
AcDbSymbolTableRecord
100
AcDbBlockTableRecord
  2
Silla
340
0
  0
BLOCK_RECORD
  5
5A
100
AcDbSymbolTableRecord
100
AcDbBlockTableRecord
  2
Lavabo
340
0
  0
BLOCK_RECORD
  5
5B
100
AcDbSymbolTableRecord
100
AcDbBlockTableRecord
  2
WC
340
0
  0
BLOCK_RECORD
  5
5C
100
AcDbSymbolTableRecord
100
AcDbBlockTableRecord
  2
Bide
340
0
  0
BLOCK_RECORD
  5
5D
100
AcDbSymbolTableRecord
100
AcDbBlockTableRecord
  2
vitroceramica
340
0
  0
BLOCK_RECORD
  5
5E
100
AcDbSymbolTableRecord
100
AcDbBlockTableRecord
  2
Fregadero
340
0
  0
BLOCK_RECORD
  5
5F
100
AcDbSymbolTableRecord
100
AcDbBlockTableRecord
  2
Bañera
340
0
  0
BLOCK_RECORD
  5
60
100
AcDbSymbolTableRecord
100
AcDbBlockTableRecord
  2
Cama matrimonio
340
0
  0
BLOCK_RECORD
  5
61
100
AcDbSymbolTableRecord
100
AcDbBlockTableRecord
  2
Televisor
340
0
  0
ENDTAB
  0
ENDSEC
  0
SECTION
  2
BLOCKS
  0
BLOCK
  5
20
100
AcDbEntity
  8
0
100
AcDbBlockBegin
  2
*Model_Space
 70
0
 10
0.0
 20
0.0
 30
0.0
  3
*Model_Space
  1

  0
ENDBLK
  5
21
100
AcDbEntity
  8
0
100
AcDbBlockEnd
  0
BLOCK
  5
1C
100
AcDbEntity
 67
1
  8
0
100
AcDbBlockBegin
  2
*Paper_Space
 70
0
 10
0.0
 20
0.0
 30
0.0
  3
*Paper_Space
  1

  0
ENDBLK
  5
1D
100
AcDbEntity
 67
1
  8
0
100
AcDbBlockEnd
  0
BLOCK
  5
24
100
AcDbEntity
  8
0
100
AcDbBlockBegin
  2
*Paper_Space0
 70
0
 10
0.0
 20
0.0
 30
0.0
  3
*Paper_Space0
  1

  0
ENDBLK
  5
25
100
AcDbEntity
  8
0
100
AcDbBlockEnd
  0
BLOCK
  5
62
100
AcDbEntity
  8
0
100
AcDbBlockBegin
  2
Armario 3 cuerpos
 70
0
 10
0.0
 20
0.0
 30
0.0
  3
Armario 3 cuerpos
  1

  0
LINE
  5
63
100
AcDbEntity
100
AcDbLine
  8
muebles-bloques
 62
256
370
-1
  6
ByLayer
 10
0.0
 20
0.0
 30
0.0
 11
3.4417035900345034
 21
-0.0002730929278805
 31
0.0
  0
LINE
  5
64
100
AcDbEntity
100
AcDbLine
  8
muebles-bloques
 62
256
370
-1
  6
ByLayer
 10
0.0411006695331224
 20
-0.5675874701494514
 30
0.0
 11
0.8884809513847252
 21
-0.5676547082355157
 31
0.0
  0
LINE
  5
65
100
AcDbEntity
100
AcDbLine
  8
muebles-bloques
 62
256
370
-1
  6
ByLayer
 10
-0.0000397297921069
 20
-0.5007019741302141
 30
0.0
 11
0.8884862583682676
 21
-0.5007724770533315
 31
0.0
  0
LINE
  5
66
100
AcDbEntity
100
AcDbLine
  8
muebles-bloques
 62
256
370
-1
  6
ByLayer
 10
0.0411059765166755
 20
-0.500705238967269
 30
0.0
 11
0.0411006695331224
 21
-0.567587470149455
 31
0.0
  0
LINE
  5
67
100
AcDbEntity
100
AcDbLine
  8
muebles-bloques
 62
256
370
-1
  6
ByLayer
 10
0.0
 20
0.0
 30
0.0
 11
-0.0000397297921069
 21
-0.5007019741302141
 31
0.0
  0
LINE
  5
68
100
AcDbEntity
100
AcDbLine
  8
muebles-bloques
 62
256
370
-1
  6
ByLayer
 10
1.276549071144963
 20
-0.5008032691325894
 30
0.0
 11
2.1650750593053338
 21
-0.5008737720557068
 31
0.0
  0
LINE
  5
69
100
AcDbEntity
100
AcDbLine
  8
muebles-bloques
 62
256
370
-1
  6
ByLayer
 10
1.3176894704701709
 20
-0.5676887651520559
 30
0.0
 11
2.1650697523217879
 21
-0.5677560032378857
 31
0.0
  0
LINE
  5
6A
100
AcDbEntity
100
AcDbLine
  8
muebles-bloques
 62
256
370
-1
  6
ByLayer
 10
0.8884862583682676
 20
-0.5007724770533315
 30
0.0
 11
0.8884809513847252
 21
-0.5676547082355157
 31
0.0
  0
LINE
  5
6B
100
AcDbEntity
100
AcDbLine
  8
muebles-bloques
 62
256
370
-1
  6
ByLayer
 10
1.3176947774537382
 20
-0.5008065339696479
 30
0.0
 11
1.3176894704701709
 21
-0.5676887651520559
 31
0.0
  0
LINE
  5
6C
100
AcDbEntity
100
AcDbLine
  8
muebles-bloques
 62
256
370
-1
  6
ByLayer
 10
0.8884862583682676
 20
-0.5007724770533315
 30
0.0
 11
1.3176947774537382
 21
-0.5008065339696479
 31
0.0
  0
LINE
  5
6D
100
AcDbEntity
100
AcDbLine
  8
muebles-bloques
 62
256
370
-1
  6
ByLayer
 10
3.4417035900345034
 20
-0.0002730929278805
 30
0.0
 11
3.4416638602424037
 21
-0.5009750670580928
 31
0.0
  0
LINE
  5
6E
100
AcDbEntity
100
AcDbLine
  8
muebles-bloques
 62
256
370
-1
  6
ByLayer
 10
2.5531378720820364
 20
-0.5009045641349736
 30
0.0
 11
3.4416638602424037
 21
-0.5009750670580928
 31
0.0
  0
LINE
  5
6F
100
AcDbEntity
100
AcDbLine
  8
muebles-bloques
 62
256
370
-1
  6
ByLayer
 10
2.1650750593053338
 20
-0.5008737720557068
 30
0.0
 11
2.1650697523217879
 21
-0.5677560032378857
 31
0.0
  0
LINE
  5
70
100
AcDbEntity
100
AcDbLine
  8
muebles-bloques
 62
256
370
-1
  6
ByLayer
 10
2.5531378720820364
 20
-0.5009045641349736
 30
0.0
 11
2.5531325650984762
 21
-0.5677867953171472
 31
0.0
  0
LINE
  5
71
100
AcDbEntity
100
AcDbLine
  8
muebles-bloques
 62
256
370
-1
  6
ByLayer
 10
3.4005128469500896
 20
-0.5678540334032309
 30
0.0
 11
2.5531325650984762
 21
-0.5677867953171472
 31
0.0
  0
LINE
  5
72
100
AcDbEntity
100
AcDbLine
  8
muebles-bloques
 62
256
370
-1
  6
ByLayer
 10
3.4005181539336355
 20
-0.5009718022210468
 30
0.0
 11
3.4005128469500896
 21
-0.5678540334032309
 31
0.0
  0
LINE
  5
73
100
AcDbEntity
100
AcDbLine
  8
muebles-bloques
 62
256
370
-1
  6
ByLayer
 10
2.1650750593053338
 20
-0.5008737720557068
 30
0.0
 11
2.5531378720820364
 21
-0.5009045641349736
 31
0.0
  0
ENDBLK
  5
74
100
AcDbEntity
  8
0
100
AcDbBlockEnd
  0
BLOCK
  5
75
100
AcDbEntity
  8
0
100
AcDbBlockBegin
  2
Silla escritorio
 70
0
 10
0.0
 20
0.0
 30
0.0
  3
Silla escritorio
  1

  0
LWPOLYLINE
  5
76
  8
muebles-bloques
 62
256
370
-1
  6
ByLayer
100
AcDbEntity
100
AcDbPolyline
 90
5
 70
0
 10
0.0760227640596298
 20
0.3539809951526518
 30
0.0
 10
0.0760227640596298
 20
0.0
 30
0.0
 10
0.0
 20
0.0
 30
0.0
 10
0.0
 20
0.3539809951526518
 30
0.0
 10
0.0760227640596298
 20
0.3539809951526518
 30
0.0
  0
LINE
  5
77
100
AcDbEntity
100
AcDbLine
  8
muebles-bloques
 62
256
370
-1
  6
ByLayer
 10
0.4382488751672753
 20
0.341767043721017
 30
0.0
 11
0.085475842490645
 21
0.3135452011068836
 31
0.0
  0
LINE
  5
78
100
AcDbEntity
100
AcDbLine
  8
muebles-bloques
 62
256
370
-1
  6
ByLayer
 10
0.4382488751672753
 20
0.0224155355793449
 30
0.0
 11
0.085475842490645
 21
0.0506373781934784
 31
0.0
  0
LINE
  5
79
100
AcDbEntity
100
AcDbLine
  8
muebles-bloques
 62
256
370
-1
  6
ByLayer
 10
0.085475842490645
 20
0.3108490697405255
 30
0.0
 11
0.085475842490645
 21
0.0506373781934801
 31
0.0
  0
LINE
  5
7A
100
AcDbEntity
100
AcDbLine
  8
muebles-bloques
 62
256
370
-1
  6
ByLayer
 10
0.4382488751672753
 20
0.0224155355793449
 30
0.0
 11
0.4382488751672753
 21
0.341767043721017
 31
0.0
  0
ENDBLK
  5
7B
100
AcDbEntity
  8
0
100
AcDbBlockEnd
  0
BLOCK
  5
7C
100
AcDbEntity
  8
0
100
AcDbBlockBegin
  2
Mesa escritorio
 70
0
 10
0.0
 20
0.0
 30
0.0
  3
Mesa escritorio
  1

  0
LINE
  5
7D
100
AcDbEntity
100
AcDbLine
  8
muebles-bloques
 62
256
370
-1
  6
ByLayer
 10
0.3085432560790622
 20
0.0
 30
0.0
 11
0.0
 21
0.0
 31
0.0
  0
LINE
  5
7E
100
AcDbEntity
100
AcDbLine
  8
muebles-bloques
 62
256
370
-1
  6
ByLayer
 10
0.0
 20
-0.5061478009361302
 30
0.0
 11
0.5469160292332091
 21
-0.5061478009361302
 31
0.0
  0
LINE
  5
7F
100
AcDbEntity
100
AcDbLine
  8
muebles-bloques
 62
256
370
-1
  6
ByLayer
 10
0.0
 20
0.0
 30
0.0
 11
0.0
 21
-0.5061478009361302
 31
0.0
  0
LINE
  5
80
100
AcDbEntity
100
AcDbLine
  8
muebles-bloques
 62
256
370
-1
  6
ByLayer
 10
1.0530638301693429
 20
0.0
 30
0.0
 11
1.0530638301693429
 21
-1.4021804145366854
 31
0.0
  0
LINE
  5
81
100
AcDbEntity
100
AcDbLine
  8
muebles-bloques
 62
256
370
-1
  6
ByLayer
 10
0.5469160292332091
 20
-1.4021804145366854
 30
0.0
 11
0.5469160292332091
 21
-0.5061478009361302
 31
0.0
  0
LINE
  5
82
100
AcDbEntity
100
AcDbLine
  8
muebles-bloques
 62
256
370
-1
  6
ByLayer
 10
1.0530638301693429
 20
-1.4021804145366854
 30
0.0
 11
0.5469160292332091
 21
-1.4021804145366854
 31
0.0
  0
LINE
  5
83
100
AcDbEntity
100
AcDbLine
  8
muebles-bloques
 62
256
370
-1
  6
ByLayer
 10
0.3085432560790622
 20
0.0
 30
0.0
 11
1.0530638301693429
 21
0.0
 31
0.0
  0
ENDBLK
  5
84
100
AcDbEntity
  8
0
100
AcDbBlockEnd
  0
BLOCK
  5
85
100
AcDbEntity
  8
0
100
AcDbBlockBegin
  2
Cama 80
 70
0
 10
0.0
 20
0.0
 30
0.0
  3
Cama 80
  1

  0
LINE
  5
86
100
AcDbEntity
100
AcDbLine
  8
muebles-bloques
 62
256
370
-1
  6
ByLayer
 10
0.0
 20
0.2776560415614213
 30
0.0
 11
0.7592217014042006
 21
0.2776560415614213
 31
0.0
  0
LWPOLYLINE
  5
87
  8
muebles-bloques
 62
256
370
-1
  6
ByLayer
100
AcDbEntity
100
AcDbPolyline
 90
4
 70
0
 10
0.0
 20
0.2776560415614213
 30
0.0
 10
0.7592217014042006
 20
0.5414292810447758
 30
0.0
 10
0.564862472311205
 20
0.8190853226062007
 30
0.0
 10
0.0
 20
0.2776560415614213
 30
0.0
  0
LWPOLYLINE
  5
88
  8
muebles-bloques
 62
256
370
-1
  6
ByLayer
100
AcDbEntity
100
AcDbPolyline
 90
4
 70
1
 10
0.7592217014042006
 20
0.0
 30
0.0
 10
0.0
 20
0.0
 30
0.0
 10
0.0
 20
1.518443402808396
 30
0.0
 10
0.7592217014042006
 20
1.518443402808396
 30
0.0
  0
ENDBLK
  5
89
100
AcDbEntity
  8
0
100
AcDbBlockEnd
  0
BLOCK
  5
8A
100
AcDbEntity
  8
0
100
AcDbBlockBegin
  2
Mesilla noche
 70
0
 10
0.0
 20
0.0
 30
0.0
  3
Mesilla noche
  1

  0
LWPOLYLINE
  5
8B
  8
muebles-bloques
 62
256
370
-1
  6
ByLayer
100
AcDbEntity
100
AcDbPolyline
 90
4
 70
1
 10
0.0
 20
0.0
 30
0.0
 10
0.0
 20
0.3226255821057844
 30
0.0
 10
0.5087557256283546
 20
0.3226255821057844
 30
0.0
 10
0.5087557256283546
 20
0.0
 30
0.0
  0
LWPOLYLINE
  5
8C
  8
muebles-bloques
 62
256
370
-1
  6
ByLayer
100
AcDbEntity
100
AcDbPolyline
 90
4
 70
1
 10
0.2117131377173713
 20
0.3226255821057844
 30
0.0
 10
0.2117131377173713
 20
0.3564018228074222
 30
0.0
 10
0.2970425879109797
 20
0.3564018228074222
 30
0.0
 10
0.2970425879109797
 20
0.3226255821057844
 30
0.0
  0
ENDBLK
  5
8D
100
AcDbEntity
  8
0
100
AcDbBlockEnd
  0
BLOCK
  5
8E
100
AcDbEntity
  8
0
100
AcDbBlockBegin
  2
Alfombra
 70
0
 10
0.0
 20
0.0
 30
0.0
  3
Alfombra
  1

  0
LWPOLYLINE
  5
8F
  8
muebles-bloques
 62
256
370
-1
  6
ByLayer
100
AcDbEntity
100
AcDbPolyline
 90
4
 70
1
 10
0.421894991984491
 20
0.8810160126734932
 30
0.0
 10
0.0
 20
0.8810160126734932
 30
0.0
 10
0.0
 20
0.0
 30
0.0
 10
0.421894991984491
 20
0.0
 30
0.0
  0
LWPOLYLINE
  5
90
  8
muebles-bloques
 62
256
370
-1
  6
ByLayer
100
AcDbEntity
100
AcDbPolyline
 90
4
 70
1
 10
0.0421789834113468
 20
0.8388370292621499
 30
0.0
 10
0.3797160085731512
 20
0.8388370292621499
 30
0.0
 10
0.3797160085731512
 20
0.0421789834113451
 30
0.0
 10
0.0421789834113468
 20
0.0421789834113451
 30
0.0
  0
ENDBLK
  5
91
100
AcDbEntity
  8
0
100
AcDbBlockEnd
  0
BLOCK
  5
92
100
AcDbEntity
  8
0
100
AcDbBlockBegin
  2
Mesa cocina
 70
0
 10
0.0
 20
0.0
 30
0.0
  3
Mesa cocina
  1

  0
LWPOLYLINE
  5
93
  8
muebles-bloques
 62
256
370
-1
  6
ByLayer
100
AcDbEntity
100
AcDbPolyline
 90
4
 70
1
 10
0.0
 20
0.5339247748645883
 30
0.0
 10
1.307548485751667
 20
0.5339247748645883
 30
0.0
 10
1.307548485751667
 20
-0.0000000000000027
 30
0.0
 10
0.0
 20
0.0
 30
0.0
  0
ENDBLK
  5
94
100
AcDbEntity
  8
0
100
AcDbBlockEnd
  0
BLOCK
  5
95
100
AcDbEntity
  8
0
100
AcDbBlockBegin
  2
Frigorifico
 70
0
 10
0.0
 20
0.0
 30
0.0
  3
Frigorifico
  1

  0
LINE
  5
96
100
AcDbEntity
100
AcDbLine
  8
muebles-bloques
 62
256
370
-1
  6
ByLayer
 10
-0.5588146147028823
 20
0.0
 30
0.0
 11
-0.5588146147028823
 21
-0.771369248626665
 31
0.0
  0
LINE
  5
97
100
AcDbEntity
100
AcDbLine
  8
muebles-bloques
 62
256
370
-1
  6
ByLayer
 10
-0.6189869863242947
 20
-0.2837890970381385
 30
0.0
 11
-0.599953860042973
 21
-0.2837890970381385
 31
0.0
  0
LINE
  5
98
100
AcDbEntity
100
AcDbLine
  8
muebles-bloques
 62
256
370
-1
  6
ByLayer
 10
-0.599953860042973
 20
-0.2600506446922744
 30
0.0
 11
-0.6189869863242947
 21
-0.2600506446922744
 31
0.0
  0
LINE
  5
99
100
AcDbEntity
100
AcDbLine
  8
muebles-bloques
 62
256
370
-1
  6
ByLayer
 10
-0.599953860042973
 20
-0.222996850723252
 30
0.0
 11
-0.6189869863242947
 21
-0.222996850723252
 31
0.0
  0
LINE
  5
9A
100
AcDbEntity
100
AcDbLine
  8
muebles-bloques
 62
256
370
-1
  6
ByLayer
 10
-0.6189869863242947
 20
-0.2467346696056114
 30
0.0
 11
-0.599953860042973
 21
-0.2467346696056114
 31
0.0
  0
LWPOLYLINE
  5
9B
  8
muebles-bloques
 62
256
370
-1
  6
ByLayer
100
AcDbEntity
100
AcDbPolyline
 90
4
 70
1
 10
-0.599953860042973
 20
0.0
 30
0.0
 10
0.0
 20
0.0
 30
0.0
 10
0.0
 20
-0.771369248626665
 30
0.0
 10
-0.599953860042973
 20
-0.771369248626665
 30
0.0
  0
LINE
  5
9C
100
AcDbEntity
100
AcDbLine
  8
muebles-bloques
 62
256
370
-1
  6
ByLayer
 10
-0.5588146147028823
 20
-0.2536941244755573
 30
0.0
 11
-0.599953860042973
 21
-0.2536941244755573
 31
0.0
  0
LINE
  5
9D
100
AcDbEntity
100
AcDbLine
  8
muebles-bloques
 62
256
370
-1
  6
ByLayer
 10
-0.6189869863242947
 20
-0.222996850723252
 30
0.0
 11
-0.6189869863242947
 21
-0.2467346696056114
 31
0.0
  0
LINE
  5
9E
100
AcDbEntity
100
AcDbLine
  8
muebles-bloques
 62
256
370
-1
  6
ByLayer
 10
-0.6189869863242947
 20
-0.2600506446922744
 30
0.0
 11
-0.6189869863242947
 21
-0.2837890970381385
 31
0.0
  0
ENDBLK
  5
9F
100
AcDbEntity
  8
0
100
AcDbBlockEnd
  0
BLOCK
  5
A0
100
AcDbEntity
  8
0
100
AcDbBlockBegin
  2
Mesa comedor
 70
0
 10
0.0
 20
0.0
 30
0.0
  3
Mesa comedor
  1

  0
LWPOLYLINE
  5
A1
  8
muebles-bloques
 62
256
370
-1
  6
ByLayer
100
AcDbEntity
100
AcDbPolyline
 90
4
 70
1
 10
2.3225364112093558
 20
0.0
 30
0.0
 10
0.0
 20
0.0
 30
0.0
 10
0.0
 20
0.7324128238126919
 30
0.0
 10
2.3225364112093558
 20
0.7324128238126919
 30
0.0
  0
ENDBLK
  5
A2
100
AcDbEntity
  8
0
100
AcDbBlockEnd
  0
BLOCK
  5
A3
100
AcDbEntity
  8
0
100
AcDbBlockBegin
  2
Mesa auxiliar
 70
0
 10
0.0
 20
0.0
 30
0.0
  3
Mesa auxiliar
  1

  0
LWPOLYLINE
  5
A4
  8
muebles-bloques
 62
256
370
-1
  6
ByLayer
100
AcDbEntity
100
AcDbPolyline
 90
5
 70
0
 10
0.0
 20
0.0
 30
0.0
 10
0.0
 20
0.4622965814016542
 30
0.0
 10
1.1035466781845997
 20
0.4622965814016542
 30
0.0
 10
1.1035466781845997
 20
0.0
 30
0.0
 10
0.0
 20
0.0
 30
0.0
  0
ENDBLK
  5
A5
100
AcDbEntity
  8
0
100
AcDbBlockEnd
  0
BLOCK
  5
A6
100
AcDbEntity
  8
0
100
AcDbBlockBegin
  2
Sofa rinconera
 70
0
 10
0.0
 20
0.0
 30
0.0
  3
Sofa rinconera
  1

  0
LINE
  5
A7
100
AcDbEntity
100
AcDbLine
  8
muebles-bloques
 62
256
370
-1
  6
ByLayer
 10
2.6572759549147023
 20
-0.0000000000000062
 30
0.0
 11
2.1258207639317561
 21
-0.0000000000000036
 31
0.0
  0
LINE
  5
A8
100
AcDbEntity
100
AcDbLine
  8
muebles-bloques
 62
256
370
-1
  6
ByLayer
 10
2.6572759549147023
 20
0.5314551909829302
 30
0.0
 11
2.1258207639317561
 21
0.5314551909829328
 31
0.0
  0
LINE
  5
A9
100
AcDbEntity
100
AcDbLine
  8
muebles-bloques
 62
256
370
-1
  6
ByLayer
 10
0.531455190982939
 20
0.0759221701404194
 30
0.0
 11
2.5813537847742722
 21
0.0759221701404194
 31
0.0
  0
LINE
  5
AA
100
AcDbEntity
100
AcDbLine
  8
muebles-bloques
 62
256
370
-1
  6
ByLayer
 10
2.1258207639317561
 20
-0.0000000000000036
 30
0.0
 11
2.1258207639317561
 21
0.5314551909829328
 31
0.0
  0
LINE
  5
AB
100
AcDbEntity
100
AcDbLine
  8
muebles-bloques
 62
256
370
-1
  6
ByLayer
 10
2.1258207639317561
 20
-0.0000000000000036
 30
0.0
 11
1.5943655729488171
 21
-0.0000000000000036
 31
0.0
  0
LINE
  5
AC
100
AcDbEntity
100
AcDbLine
  8
muebles-bloques
 62
256
370
-1
  6
ByLayer
 10
2.1258207639317561
 20
0.5314551909829328
 30
0.0
 11
1.5943655729488171
 21
0.5314551909829328
 31
0.0
  0
LINE
  5
AD
100
AcDbEntity
100
AcDbLine
  8
muebles-bloques
 62
256
370
-1
  6
ByLayer
 10
2.1258207639317561
 20
-0.0000000000000036
 30
0.0
 11
2.1258207639317561
 21
0.5314551909829328
 31
0.0
  0
LINE
  5
AE
100
AcDbEntity
100
AcDbLine
  8
muebles-bloques
 62
256
370
-1
  6
ByLayer
 10
2.0498985937913403
 20
0.0759221701404194
 30
0.0
 11
1.67028774308924
 21
0.0759221701404194
 31
0.0
  0
LINE
  5
AF
100
AcDbEntity
100
AcDbLine
  8
muebles-bloques
 62
256
370
-1
  6
ByLayer
 10
1.5943655729488171
 20
-0.0000000000000036
 30
0.0
 11
1.5943655729488171
 21
0.5314551909829328
 31
0.0
  0
LINE
  5
B0
100
AcDbEntity
100
AcDbLine
  8
muebles-bloques
 62
256
370
-1
  6
ByLayer
 10
1.0629103819658923
 20
-0.0000000000000036
 30
0.0
 11
1.0629103819658923
 21
0.5314551909829328
 31
0.0
  0
LINE
  5
B1
100
AcDbEntity
100
AcDbLine
  8
muebles-bloques
 62
256
370
-1
  6
ByLayer
 10
1.5943655729488171
 20
-0.0000000000000036
 30
0.0
 11
1.5943655729488171
 21
0.5314551909829328
 31
0.0
  0
LINE
  5
B2
100
AcDbEntity
100
AcDbLine
  8
muebles-bloques
 62
256
370
-1
  6
ByLayer
 10
1.5943655729488171
 20
-0.0000000000000036
 30
0.0
 11
1.5943655729488171
 21
0.5314551909829328
 31
0.0
  0
LINE
  5
B3
100
AcDbEntity
100
AcDbLine
  8
muebles-bloques
 62
256
370
-1
  6
ByLayer
 10
0.531455190982939
 20
-0.0000000000000036
 30
0.0
 11
0.531455190982939
 21
0.5314551909829328
 31
0.0
  0
LINE
  5
B4
100
AcDbEntity
100
AcDbLine
  8
muebles-bloques
 62
256
370
-1
  6
ByLayer
 10
0.531455190982939
 20
-0.0000000000000036
 30
0.0
 11
1.5943655729488171
 21
-0.0000000000000036
 31
0.0
  0
LINE
  5
B5
100
AcDbEntity
100
AcDbLine
  8
muebles-bloques
 62
256
370
-1
  6
ByLayer
 10
0.531455190982939
 20
0.5314551909829328
 30
0.0
 11
1.5943655729488171
 21
0.5314551909829328
 31
0.0
  0
LINE
  5
B6
100
AcDbEntity
100
AcDbLine
  8
muebles-bloques
 62
256
370
-1
  6
ByLayer
 10
2.6572759549147023
 20
0.3796108507020914
 30
0.0
 11
2.5813537847742722
 21
0.3796108507020914
 31
0.0
  0
LINE
  5
B7
100
AcDbEntity
100
AcDbLine
  8
muebles-bloques
 62
256
370
-1
  6
ByLayer
 10
2.6572759549147023
 20
-0.0000000000000062
 30
0.0
 11
2.6572759549147023
 21
0.5314551909829302
 31
0.0
  0
LINE
  5
B8
100
AcDbEntity
100
AcDbLine
  8
muebles-bloques
 62
256
370
-1
  6
ByLayer
 10
2.5813537847742722
 20
0.0759221701404131
 30
0.0
 11
2.5813537847742722
 21
0.3796108507020888
 31
0.0
  0
LWPOLYLINE
  5
B9
  8
muebles-bloques
 62
256
370
-1
  6
ByLayer
100
AcDbEntity
100
AcDbPolyline
 90
5
 70
0
 10
0.0
 20
0.0
 30
0.0
 10
0.0
 20
0.5314551909829364
 30
0.0
 10
0.531455190982939
 20
0.5314551909829328
 30
0.0
 10
0.531455190982939
 20
-0.0000000000000036
 30
0.0
 10
0.0
 20
0.0
 30
0.0
  0
LINE
  5
BA
100
AcDbEntity
100
AcDbLine
  8
muebles-bloques
 62
256
370
-1
  6
ByLayer
 10
0.0
 20
1.5943655729488162
 30
0.0
 11
0.0
 21
1.0629103819658763
 31
0.0
  0
LINE
  5
BB
100
AcDbEntity
100
AcDbLine
  8
muebles-bloques
 62
256
370
-1
  6
ByLayer
 10
0.531455190982939
 20
1.59436557294881
 30
0.0
 11
0.531455190982939
 21
1.0629103819658763
 31
0.0
  0
LINE
  5
BC
100
AcDbEntity
100
AcDbLine
  8
muebles-bloques
 62
256
370
-1
  6
ByLayer
 10
0.0759221701404229
 20
0.5314551909829364
 30
0.0
 11
0.0759221701404229
 21
1.5184434028083942
 31
0.0
  0
LINE
  5
BD
100
AcDbEntity
100
AcDbLine
  8
muebles-bloques
 62
256
370
-1
  6
ByLayer
 10
0.0
 20
1.0629103819658763
 30
0.0
 11
0.531455190982939
 21
1.0629103819658763
 31
0.0
  0
LINE
  5
BE
100
AcDbEntity
100
AcDbLine
  8
muebles-bloques
 62
256
370
-1
  6
ByLayer
 10
0.0
 20
0.5314551909829364
 30
0.0
 11
0.0
 21
1.0629103819658763
 31
0.0
  0
LINE
  5
BF
100
AcDbEntity
100
AcDbLine
  8
muebles-bloques
 62
256
370
-1
  6
ByLayer
 10
0.531455190982939
 20
0.5314551909829328
 30
0.0
 11
0.531455190982939
 21
1.0629103819658763
 31
0.0
  0
LINE
  5
C0
100
AcDbEntity
100
AcDbLine
  8
muebles-bloques
 62
256
370
-1
  6
ByLayer
 10
0.0
 20
1.0629103819658763
 30
0.0
 11
0.531455190982939
 21
1.0629103819658763
 31
0.0
  0
LINE
  5
C1
100
AcDbEntity
100
AcDbLine
  8
muebles-bloques
 62
256
370
-1
  6
ByLayer
 10
0.0759221701404229
 20
0.6073773611233593
 30
0.0
 11
0.0759221701404229
 21
0.9869882118254569
 31
0.0
  0
LINE
  5
C2
100
AcDbEntity
100
AcDbLine
  8
muebles-bloques
 62
256
370
-1
  6
ByLayer
 10
0.0
 20
0.5314551909829364
 30
0.0
 11
0.531455190982939
 21
0.5314551909829328
 31
0.0
  0
LINE
  5
C3
100
AcDbEntity
100
AcDbLine
  8
muebles-bloques
 62
256
370
-1
  6
ByLayer
 10
0.0
 20
0.5314551909829364
 30
0.0
 11
0.531455190982939
 21
0.5314551909829328
 31
0.0
  0
LINE
  5
C4
100
AcDbEntity
100
AcDbLine
  8
muebles-bloques
 62
256
370
-1
  6
ByLayer
 10
0.0
 20
0.5314551909829364
 30
0.0
 11
0.531455190982939
 21
0.5314551909829328
 31
0.0
  0
LINE
  5
C5
100
AcDbEntity
100
AcDbLine
  8
muebles-bloques
 62
256
370
-1
  6
ByLayer
 10
0.3796108507021003
 20
1.5943655729488162
 30
0.0
 11
0.3796108507021003
 21
1.5184434028083942
 31
0.0
  0
LINE
  5
C6
100
AcDbEntity
100
AcDbLine
  8
muebles-bloques
 62
256
370
-1
  6
ByLayer
 10
0.0
 20
1.5943655729488162
 30
0.0
 11
0.531455190982939
 21
1.59436557294881
 31
0.0
  0
LINE
  5
C7
100
AcDbEntity
100
AcDbLine
  8
muebles-bloques
 62
256
370
-1
  6
ByLayer
 10
0.0759221701404229
 20
1.5184434028083942
 30
0.0
 11
0.3796108507020932
 21
1.5184434028083942
 31
0.0
  0
ENDBLK
  5
C8
100
AcDbEntity
  8
0
100
AcDbBlockEnd
  0
BLOCK
  5
C9
100
AcDbEntity
  8
0
100
AcDbBlockBegin
  2
Mesa redonda
 70
0
 10
0.0
 20
0.0
 30
0.0
  3
Mesa redonda
  1

  0
LWPOLYLINE
  5
CA
  8
muebles-bloques
 62
256
370
-1
  6
ByLayer
100
AcDbEntity
100
AcDbPolyline
 90
98
 70
1
 10
0.5221259425234663
 20
0.0126440477984424
 30
0.0
 10
0.5189788346427662
 20
0.0452671131625682
 30
0.0
 10
0.5137480258584048
 20
0.0776215150458963
 30
0.0
 10
0.5064550106857055
 20
0.1095743022709836
 30
0.0
 10
0.497129757688306
 20
0.1409941739814631
 30
0.0
 10
0.4858105863310982
 20
0.1717520191847139
 30
0.0
 10
0.4725440095170939
 20
0.2017214472974462
 30
0.0
 10
0.4573845424561398
 20
0.2307793075109945
 30
0.0
 10
0.4403944786500205
 20
0.2588061948449578
 30
0.0
 10
0.4216436339153518
 20
0.2856869408074143
 30
0.0
 10
0.401209059495109
 20
0.3113110866474056
 30
0.0
 10
0.379174725438844
 20
0.3355733372532601
 30
0.0
 10
0.355631175551494
 20
0.3583739938330464
 30
0.0
 10
0.3306751553297431
 20
0.3796193635980441
 30
0.0
 10
0.3044092144135533
 20
0.3992221447669131
 30
0.0
 10
0.2769412851883359
 20
0.4171017853069401
 30
0.0
 10
0.2483842392670113
 20
0.4331848139400467
 30
0.0
 10
0.2188554236768283
 20
0.4474051420517267
 30
0.0
 10
0.188476178654895
 20
0.4597043352635559
 30
0.0
 10
0.1573713390353788
 20
0.4700318535524328
 30
0.0
 10
0.1256687212761776
 20
0.4783452589304851
 30
0.0
 10
0.0934985982338929
 20
0.4846103898317811
 30
0.0
 10
0.0609931638446497
 20
0.488801501489581
 30
0.0
 10
0.0282859899106285
 20
0.4909013717270963
 30
0.0
 10
-0.0044885227747713
 20
0.4909013717270963
 30
0.0
 10
-0.0371956967087783
 20
0.488801501489581
 30
0.0
 10
-0.0697011310980429
 20
0.4846103898317811
 30
0.0
 10
-0.1018712541403062
 20
0.4783452589304851
 30
0.0
 10
-0.1335738718995216
 20
0.4700318535524257
 30
0.0
 10
-0.1646787115190236
 20
0.4597043352635613
 30
0.0
 10
-0.1950579565409711
 20
0.4474051420517267
 30
0.0
 10
-0.2245867721311541
 20
0.4331848139400467
 30
0.0
 10
-0.2531438180524788
 20
0.4171017853069401
 30
0.0
 10
-0.2806117472777032
 20
0.3992221447669131
 30
0.0
 10
-0.3068776881938931
 20
0.3796193635980441
 30
0.0
 10
-0.3318337084156298
 20
0.3583739938330464
 30
0.0
 10
-0.3553772583029797
 20
0.3355733372532601
 30
0.0
 10
-0.3774115923592518
 20
0.3113110866474056
 30
0.0
 10
-0.3978461667794733
 20
0.2856869408074285
 30
0.0
 10
-0.4165970115141846
 20
0.2588061948449205
 30
0.0
 10
-0.4335870753202613
 20
0.2307793075110123
 30
0.0
 10
-0.4487465423812296
 20
0.2017214472974338
 30
0.0
 10
-0.4620131191952339
 20
0.1717520191847424
 30
0.0
 10
-0.4733322905524418
 20
0.1409941739814489
 30
0.0
 10
-0.4826575435498413
 20
0.1095743022709748
 30
0.0
 10
-0.4899505587225406
 20
0.077621515045907
 30
0.0
 10
-0.4951813675069019
 20
0.0452671131625682
 30
0.0
 10
-0.4983284753876092
 20
0.0126440477984424
 30
0.0
 10
-0.4993789502233241
 20
-0.0201136258732699
 30
0.0
 10
-0.4983284753876092
 20
-0.0528712995449911
 30
0.0
 10
-0.4951813675069019
 20
-0.0854943649091151
 30
0.0
 10
-0.4899505587225406
 20
-0.1178487667924539
 30
0.0
 10
-0.4826575435498413
 20
-0.1498015540175235
 30
0.0
 10
-0.4733322905524418
 20
-0.18122142572801
 30
0.0
 10
-0.462013119195241
 20
-0.2119792709312609
 30
0.0
 10
-0.4487465423812296
 20
-0.241948699043995
 30
0.0
 10
-0.4335870753202755
 20
-0.2710065592575415
 30
0.0
 10
-0.4165970115141562
 20
-0.2990334465915083
 30
0.0
 10
-0.3978461667794804
 20
-0.325914192553963
 30
0.0
 10
-0.3774115923592518
 20
-0.3515383383939525
 30
0.0
 10
-0.3553772583029655
 20
-0.3758005889998266
 30
0.0
 10
-0.3318337084156724
 20
-0.3986012455795542
 30
0.0
 10
-0.3068776881938646
 20
-0.4198466153446088
 30
0.0
 10
-0.2806117472777032
 20
-0.4394493965134583
 30
0.0
 10
-0.2531438180524717
 20
-0.457329037053503
 30
0.0
 10
-0.2245867721311825
 20
-0.473412065686583
 30
0.0
 10
-0.195057956540964
 20
-0.4876323937982807
 30
0.0
 10
-0.1646787115190236
 20
-0.4999315870101082
 30
0.0
 10
-0.1335738718995216
 20
-0.5102591052989727
 30
0.0
 10
-0.1018712541403062
 20
-0.518572510677032
 30
0.0
 10
-0.0697011310980429
 20
-0.524837641578328
 30
0.0
 10
-0.0371956967087783
 20
-0.529028753236128
 30
0.0
 10
-0.0044885227747713
 20
-0.5311286234736397
 30
0.0
 10
0.0282859899106285
 20
-0.5311286234736397
 30
0.0
 10
0.0609931638446497
 20
-0.529028753236128
 30
0.0
 10
0.0934985982338929
 20
-0.524837641578328
 30
0.0
 10
0.1256687212761776
 20
-0.518572510677032
 30
0.0
 10
0.1573713390353859
 20
-0.5102591052989727
 30
0.0
 10
0.1884761786548808
 20
-0.4999315870101082
 30
0.0
 10
0.2188554236768141
 20
-0.4876323937982807
 30
0.0
 10
0.2483842392670397
 20
-0.473412065686583
 30
0.0
 10
0.2769412851883004
 20
-0.4573290370535172
 30
0.0
 10
0.3044092144135959
 20
-0.439449396513437
 30
0.0
 10
0.3306751553297147
 20
-0.4198466153446159
 30
0.0
 10
0.3556311755515367
 20
-0.3986012455795542
 30
0.0
 10
0.3791747254388298
 20
-0.3758005889998266
 30
0.0
 10
0.401209059495109
 20
-0.3515383383939525
 30
0.0
 10
0.4216436339153376
 20
-0.325914192553979
 30
0.0
 10
0.4403944786500347
 20
-0.2990334465914728
 30
0.0
 10
0.4573845424561185
 20
-0.2710065592575628
 30
0.0
 10
0.4725440095170939
 20
-0.241948699043995
 30
0.0
 10
0.4858105863310982
 20
-0.2119792709312609
 30
0.0
 10
0.497129757688306
 20
-0.1812214257280136
 30
0.0
 10
0.5064550106857055
 20
-0.149801554017527
 30
0.0
 10
0.5137480258584191
 20
-0.1178487667924237
 30
0.0
 10
0.5189788346427662
 20
-0.0854943649091489
 30
0.0
 10
0.5221259425234663
 20
-0.0528712995449983
 30
0.0
 10
0.5231764173591813
 20
-0.0201136258732735
 30
0.0
  0
LWPOLYLINE
  5
CB
  8
muebles-bloques
 62
256
370
-1
  6
ByLayer
100
AcDbEntity
100
AcDbPolyline
 90
98
 70
1
 10
0.4771246360930377
 20
-0.080097863592778
 30
0.0
 10
0.4723255762748977
 20
-0.1097817454586263
 30
0.0
 10
0.4656345237988475
 20
-0.13909716178736
 30
0.0
 10
0.4570789736347294
 20
-0.1679236492450276
 30
0.0
 10
0.446694082373277
 20
-0.1961427536116283
 30
0.0
 10
0.4345225237603074
 20
-0.2236385165341499
 30
0.0
 10
0.4206143133408915
 20
-0.2502979520250275
 30
0.0
 10
0.4050266029349814
 20
-0.2760115107453718
 30
0.0
 10
0.387823445788186
 20
-0.3006735301668169
 30
0.0
 10
0.3690755333632794
 20
-0.3241826687616367
 30
0.0
 10
0.3488599048538461
 20
-0.3464423224365927
 30
0.0
 10
0.3272596306135966
 20
-0.3673610215001322
 30
0.0
 10
0.3043634708027483
 20
-0.3868528065306691
 30
0.0
 10
0.2802655106530594
 20
-0.4048375816026084
 30
0.0
 10
0.2550647738519132
 20
-0.4212414434173759
 30
0.0
 10
0.2288648156321997
 20
-0.4359969849882663
 30
0.0
 10
0.201773297242255
 20
-0.449043572629817
 30
0.0
 10
0.1739015435422076
 20
-0.4603275951149666
 30
0.0
 10
0.1453640855464258
 20
-0.4698026839749172
 30
0.0
 10
0.1162781897912169
 20
-0.4774299040371037
 30
0.0
 10
0.0867633764610503
 20
-0.4831779134182916
 30
0.0
 10
0.056940928254761
 20
-0.4870230923149812
 30
0.0
 10
0.0269333920090276
 20
-0.4889496400622946
 30
0.0
 10
-0.0031359248731633
 20
-0.4889496400622946
 30
0.0
 10
-0.0331434611189039
 20
-0.4870230923149812
 30
0.0
 10
-0.0629659093251931
 20
-0.4831779134182916
 30
0.0
 10
-0.0924807226553668
 20
-0.4774299040371037
 30
0.0
 10
-0.1215666184105615
 20
-0.4698026839749172
 30
0.0
 10
-0.1501040764063504
 20
-0.4603275951149666
 30
0.0
 10
-0.1779758301064049
 20
-0.449043572629817
 30
0.0
 10
-0.2050673484963284
 20
-0.4359969849882663
 30
0.0
 10
-0.2312673067160347
 20
-0.4212414434173883
 30
0.0
 10
-0.2564680435172306
 20
-0.4048375816025853
 30
0.0
 10
-0.280566003666884
 20
-0.3868528065306691
 30
0.0
 10
-0.3034621634777466
 20
-0.3673610215001322
 30
0.0
 10
-0.3250624377179818
 20
-0.3464423224365927
 30
0.0
 10
-0.3452780662274151
 20
-0.3241826687616367
 30
0.0
 10
-0.3640259786523146
 20
-0.3006735301668346
 30
0.0
 10
-0.3812291357991455
 20
-0.2760115107453398
 30
0.0
 10
-0.3968168462050343
 20
-0.2502979520250417
 30
0.0
 10
-0.4107250566244431
 20
-0.2236385165341499
 30
0.0
 10
-0.4228966152374198
 20
-0.1961427536116283
 30
0.0
 10
-0.4332815064988722
 20
-0.1679236492450276
 30
0.0
 10
-0.4418370566629832
 20
-0.1390971617873564
 30
0.0
 10
-0.4485281091390547
 20
-0.1097817454585908
 30
0.0
 10
-0.4533271689571734
 20
-0.0800978635928065
 30
0.0
 10
-0.4562145157511708
 20
-0.0501674936276242
 30
0.0
 10
-0.4571782847937556
 20
-0.020113625873277
 30
0.0
 10
-0.4562145157511708
 20
0.0099402418810719
 30
0.0
 10
-0.4533271689571734
 20
0.0398706118462595
 30
0.0
 10
-0.4485281091390547
 20
0.069554493712042
 30
0.0
 10
-0.4418370566629832
 20
0.0988699100408041
 30
0.0
 10
-0.4332815064988651
 20
0.1276963974984877
 30
0.0
 10
-0.4228966152374198
 20
0.1559155018650511
 30
0.0
 10
-0.4107250566244431
 20
0.1834112647876136
 30
0.0
 10
-0.3968168462050414
 20
0.210070700278477
 30
0.0
 10
-0.3812291357991242
 20
0.2357842589988248
 30
0.0
 10
-0.3640259786523359
 20
0.2604462784202717
 30
0.0
 10
-0.3452780662274151
 20
0.283955417015088
 30
0.0
 10
-0.3250624377179605
 20
0.306215070690067
 30
0.0
 10
-0.3034621634777892
 20
0.3271337697535461
 30
0.0
 10
-0.2805660036668627
 20
0.3466255547841382
 30
0.0
 10
-0.2564680435172306
 20
0.3646103298560401
 30
0.0
 10
-0.2312673067160134
 20
0.381014191670852
 30
0.0
 10
-0.2050673484963639
 20
0.3957697332417016
 30
0.0
 10
-0.1779758301063836
 20
0.4088163208832754
 30
0.0
 10
-0.1501040764063504
 20
0.4201003433684196
 30
0.0
 10
-0.1215666184105615
 20
0.4295754322283703
 30
0.0
 10
-0.0924807226553668
 20
0.4372026522905603
 30
0.0
 10
-0.0629659093251931
 20
0.4429506616717447
 30
0.0
 10
-0.0331434611189039
 20
0.4467958405684342
 30
0.0
 10
-0.0031359248731633
 20
0.4487223883157494
 30
0.0
 10
0.0269333920090276
 20
0.4487223883157494
 30
0.0
 10
0.0569409282547682
 20
0.4467958405684342
 30
0.0
 10
0.0867633764610503
 20
0.4429506616717447
 30
0.0
 10
0.1162781897912311
 20
0.4372026522905603
 30
0.0
 10
0.14536408554644
 20
0.4295754322283649
 30
0.0
 10
0.1739015435422076
 20
0.4201003433684249
 30
0.0
 10
0.2017732972422479
 20
0.4088163208832754
 30
0.0
 10
0.2288648156322282
 20
0.3957697332417016
 30
0.0
 10
0.2550647738518777
 20
0.381014191670852
 30
0.0
 10
0.2802655106530878
 20
0.3646103298560401
 30
0.0
 10
0.304363470802727
 20
0.3466255547841382
 30
0.0
 10
0.3272596306136464
 20
0.3271337697535461
 30
0.0
 10
0.3488599048538248
 20
0.306215070690067
 30
0.0
 10
0.3690755333632794
 20
0.283955417015088
 30
0.0
 10
0.3878234457881788
 20
0.2604462784202895
 30
0.0
 10
0.4050266029349956
 20
0.2357842589987911
 30
0.0
 10
0.4206143133408915
 20
0.2100707002784947
 30
0.0
 10
0.4345225237603074
 20
0.183411264787603
 30
0.0
 10
0.446694082373277
 20
0.1559155018650777
 30
0.0
 10
0.4570789736347294
 20
0.1276963974984806
 30
0.0
 10
0.4656345237988475
 20
0.0988699100408024
 30
0.0
 10
0.4723255762749048
 20
0.0695544937120527
 30
0.0
 10
0.4771246360930377
 20
0.0398706118462631
 30
0.0
 10
0.4800119828870351
 20
0.0099402418810755
 30
0.0
 10
0.4809757519296198
 20
-0.0201136258732735
 30
0.0
 10
0.4800119828870351
 20
-0.0501674936276242
 30
0.0
  0
ENDBLK
  5
CC
100
AcDbEntity
  8
0
100
AcDbBlockEnd
  0
BLOCK
  5
CD
100
AcDbEntity
  8
0
100
AcDbBlockBegin
  2
Butaca
 70
0
 10
0.0
 20
0.0
 30
0.0
  3
Butaca
  1

  0
LINE
  5
CE
100
AcDbEntity
100
AcDbLine
  8
muebles-bloques
 62
256
370
-1
  6
ByLayer
 10
0.0
 20
-0.0000000000000071
 30
0.0
 11
0.5905057677588204
 21
-0.0000000000000071
 31
0.0
  0
LINE
  5
CF
100
AcDbEntity
100
AcDbLine
  8
muebles-bloques
 62
256
370
-1
  6
ByLayer
 10
0.5905057677588204
 20
-0.0000000000000071
 30
0.0
 11
0.5905057677588204
 21
-0.5905057677588275
 31
0.0
  0
LINE
  5
D0
100
AcDbEntity
100
AcDbLine
  8
muebles-bloques
 62
256
370
-1
  6
ByLayer
 10
0.0
 20
-0.5905057677588168
 30
0.0
 11
0.5905057677588204
 21
-0.5905057677588275
 31
0.0
  0
LINE
  5
D1
100
AcDbEntity
100
AcDbLine
  8
muebles-bloques
 62
256
370
-1
  6
ByLayer
 10
0.0
 20
-0.4217898341134525
 30
0.0
 11
0.0843579668226866
 21
-0.4217898341134454
 31
0.0
  0
LINE
  5
D2
100
AcDbEntity
100
AcDbLine
  8
muebles-bloques
 62
256
370
-1
  6
ByLayer
 10
0.5061478009361267
 20
-0.4217898341134507
 30
0.0
 11
0.5905057677588133
 21
-0.4217898341134507
 31
0.0
  0
LINE
  5
D3
100
AcDbEntity
100
AcDbLine
  8
muebles-bloques
 62
256
370
-1
  6
ByLayer
 10
0.0
 20
-0.0000000000000071
 30
0.0
 11
0.0
 21
-0.5905057677588168
 31
0.0
  0
LINE
  5
D4
100
AcDbEntity
100
AcDbLine
  8
muebles-bloques
 62
256
370
-1
  6
ByLayer
 10
0.0843579668226866
 20
-0.084357966822699
 30
0.0
 11
0.5061478009361267
 21
-0.0843579668226901
 31
0.0
  0
LINE
  5
D5
100
AcDbEntity
100
AcDbLine
  8
muebles-bloques
 62
256
370
-1
  6
ByLayer
 10
0.0843579668226866
 20
-0.084357966822699
 30
0.0
 11
0.0843579668226866
 21
-0.4217898341134436
 31
0.0
  0
LINE
  5
D6
100
AcDbEntity
100
AcDbLine
  8
muebles-bloques
 62
256
370
-1
  6
ByLayer
 10
0.5061478009361267
 20
-0.0843579668226901
 30
0.0
 11
0.5061478009361267
 21
-0.4217898341134507
 31
0.0
  0
ENDBLK
  5
D7
100
AcDbEntity
  8
0
100
AcDbBlockEnd
  0
BLOCK
  5
D8
100
AcDbEntity
  8
0
100
AcDbBlockBegin
  2
Aparador
 70
0
 10
0.0
 20
0.0
 30
0.0
  3
Aparador
  1

  0
LWPOLYLINE
  5
D9
  8
muebles-bloques
 62
256
370
-1
  6
ByLayer
100
AcDbEntity
100
AcDbPolyline
 90
4
 70
1
 10
2.3942721747155105
 20
0.5156494346477105
 30
0.0
 10
0.0
 20
0.5156494346477105
 30
0.0
 10
0.0
 20
0.0
 30
0.0
 10
2.3942721747155105
 20
0.0
 30
0.0
  0
LWPOLYLINE
  5
DA
  8
muebles-bloques
 62
256
370
-1
  6
ByLayer
100
AcDbEntity
100
AcDbPolyline
 90
4
 70
1
 10
0.0421789834113611
 20
0.4734704512363654
 30
0.0
 10
2.3520931913041636
 20
0.4734704512363654
 30
0.0
 10
2.3520931913041636
 20
0.0421789834113433
 30
0.0
 10
0.0421789834113611
 20
0.0421789834113433
 30
0.0
  0
ENDBLK
  5
DB
100
AcDbEntity
  8
0
100
AcDbBlockEnd
  0
BLOCK
  5
DC
100
AcDbEntity
  8
0
100
AcDbBlockBegin
  2
Silla
 70
0
 10
0.0
 20
0.0
 30
0.0
  3
Silla
  1

  0
LWPOLYLINE
  5
DD
  8
muebles-bloques
 62
256
370
-1
  6
ByLayer
100
AcDbEntity
100
AcDbPolyline
 90
4
 70
1
 10
0.4222116239475469
 20
-0.4222116239475566
 30
0.0
 10
0.0
 20
-0.4222116239475566
 30
0.0
 10
0.0
 20
0.0
 30
0.0
 10
0.4222116239475469
 20
0.0
 30
0.0
  0
LINE
  5
DE
100
AcDbEntity
100
AcDbLine
  8
muebles-bloques
 62
256
370
-1
  6
ByLayer
 10
0.4222116239475469
 20
-0.3661991126106878
 30
0.0
 11
0.0
 21
-0.3661991126106878
 31
0.0
  0
ENDBLK
  5
DF
100
AcDbEntity
  8
0
100
AcDbBlockEnd
  0
BLOCK
  5
E0
100
AcDbEntity
  8
0
100
AcDbBlockBegin
  2
Lavabo
 70
0
 10
0.0
 20
0.0
 30
0.0
  3
Lavabo
  1

  0
LWPOLYLINE
  5
E1
  8
sanitarios
 62
256
370
-1
  6
ByLayer
100
AcDbEntity
100
AcDbPolyline
 90
2
 70
0
 10
0.4130444173727925
 20
-0.0935053242812859
 30
0.0
 42
-1.9284774158324276
 10
0.0728922362870223
 20
-0.0935053242812865
 30
0.0
 42
-1.9284774158324276
  0
LWPOLYLINE
  5
E2
  8
sanitarios
 62
256
370
-1
  6
ByLayer
100
AcDbEntity
100
AcDbPolyline
 90
8
 70
1
 10
0.0000000000000036
 20
0.0
 30
0.0
 10
0.4859366536598238
 20
0.0
 30
0.0
 42
-0.4142135623730814
 10
0.5264284777347135
 20
-0.0404918240748915
 30
0.0
 10
0.5264284777347132
 20
-0.4324275847691388
 30
0.0
 42
-0.4142135623731554
 10
0.4656907416223639
 20
-0.493165320881475
 30
0.0
 10
0.0202459120374439
 20
-0.4931653208814722
 30
0.0
 42
-0.4142135623731036
 10
-0.0404918240748968
 20
-0.4324275847691333
 30
0.0
 10
-0.0404918240748966
 20
-0.0404918240748909
 30
0.0
 42
-0.4142135623731518
  0
LINE
  5
E3
100
AcDbEntity
100
AcDbLine
  8
sanitarios
 62
256
370
-1
  6
ByLayer
 10
0.2767115135589826
 20
0.0
 30
0.0
 11
0.2429683268299137
 21
0.0
 31
0.0
  0
LINE
  5
E4
100
AcDbEntity
100
AcDbLine
  8
sanitarios
 62
256
370
-1
  6
ByLayer
 10
0.2767115135589826
 20
-0.2045428968653137
 30
0.0
 11
0.2429683268299137
 21
-0.2045428968653137
 31
0.0
  0
LINE
  5
E5
100
AcDbEntity
100
AcDbLine
  8
sanitarios
 62
256
370
-1
  6
ByLayer
 10
0.2429683268299137
 20
-0.0379865379892718
 30
0.0
 11
0.2767115135589737
 21
-0.0379865379892718
 31
0.0
  0
LINE
  5
E6
100
AcDbEntity
100
AcDbLine
  8
sanitarios
 62
256
370
-1
  6
ByLayer
 10
0.2767115135589737
 20
-0.0717297247183456
 30
0.0
 11
0.2767115135589737
 21
-0.0379865379892718
 31
0.0
  0
LINE
  5
E7
100
AcDbEntity
100
AcDbLine
  8
sanitarios
 62
256
370
-1
  6
ByLayer
 10
0.2429683268299137
 20
-0.0717297247183456
 30
0.0
 11
0.2429683268299137
 21
-0.0379865379892718
 31
0.0
  0
LINE
  5
E8
100
AcDbEntity
100
AcDbLine
  8
sanitarios
 62
256
370
-1
  6
ByLayer
 10
0.2767115135589737
 20
-0.0379865379892718
 30
0.0
 11
0.2767115135589826
 21
-0.2045428968653137
 31
0.0
  0
LINE
  5
E9
100
AcDbEntity
100
AcDbLine
  8
sanitarios
 62
256
370
-1
  6
ByLayer
 10
0.2429683268299137
 20
-0.0379865379892718
 30
0.0
 11
0.2429683268299137
 21
-0.2045428968653137
 31
0.0
  0
LINE
  5
EA
100
AcDbEntity
100
AcDbLine
  8
sanitarios
 62
256
370
-1
  6
ByLayer
 10
0.2767115135589737
 20
-0.1694784002598312
 30
0.0
 11
0.2429683268299137
 21
-0.1694784002598312
 31
0.0
  0
LINE
  5
EB
100
AcDbEntity
100
AcDbLine
  8
sanitarios
 62
256
370
-1
  6
ByLayer
 10
0.0728922362870339
 20
-0.0935053242812848
 30
0.0
 11
0.2429683268299137
 21
-0.0935053242812848
 31
0.0
  0
LINE
  5
EC
100
AcDbEntity
100
AcDbLine
  8
sanitarios
 62
256
370
-1
  6
ByLayer
 10
0.2767115135589737
 20
-0.0935053242812848
 30
0.0
 11
0.4130444173727934
 21
-0.0935053242812848
 31
0.0
  0
LINE
  5
ED
100
AcDbEntity
100
AcDbLine
  8
sanitarios
 62
256
370
-1
  6
ByLayer
 10
0.0
 20
0.0
 30
0.0
 11
0.485936653659822
 21
0.0
 31
0.0
  0
ENDBLK
  5
EE
100
AcDbEntity
  8
0
100
AcDbBlockEnd
  0
BLOCK
  5
EF
100
AcDbEntity
  8
0
100
AcDbBlockBegin
  2
WC
 70
0
 10
0.0
 20
0.0
 30
0.0
  3
WC
  1

  0
LINE
  5
F0
100
AcDbEntity
100
AcDbLine
  8
muebles-bloques
 62
256
370
-1
  6
ByLayer
 10
-0.2435752448913586
 20
-0.1296987607488495
 30
0.0
 11
-0.2435752448913586
 21
-0.0437686146720126
 31
0.0
  0
LINE
  5
F1
100
AcDbEntity
100
AcDbLine
  8
muebles-bloques
 62
256
370
-1
  6
ByLayer
 10
-0.2061455892683703
 20
0.0453407939261603
 30
0.0
 11
-0.0374296556229901
 21
0.0453407939261603
 31
0.0
  0
LINE
  5
F2
100
AcDbEntity
100
AcDbLine
  8
muebles-bloques
 62
256
370
-1
  6
ByLayer
 10
-0.2061455892683703
 20
-0.304738315423862
 30
0.0
 11
-0.0374296556229901
 21
-0.304738315423862
 31
0.0
  0
LINE
  5
F3
100
AcDbEntity
100
AcDbLine
  8
muebles-bloques
 62
256
370
-1
  6
ByLayer
 10
-0.0374296556229901
 20
-0.304738315423862
 30
0.0
 11
-0.0374296556229901
 21
0.0453407939261603
 31
0.0
  0
LINE
  5
F4
100
AcDbEntity
100
AcDbLine
  8
muebles-bloques
 62
256
370
-1
  6
ByLayer
 10
-0.2061455892683703
 20
-0.0453407939261635
 30
0.0
 11
-0.2061455892683703
 21
0.0453407939261603
 31
0.0
  0
LINE
  5
F5
100
AcDbEntity
100
AcDbLine
  8
muebles-bloques
 62
256
370
-1
  6
ByLayer
 10
-0.2061455892683703
 20
-0.304738315423862
 30
0.0
 11
-0.2061455892683703
 21
-0.2140567275715382
 31
0.0
  0
LINE
  5
F6
100
AcDbEntity
100
AcDbLine
  8
muebles-bloques
 62
256
370
-1
  6
ByLayer
 10
-0.2061455892683703
 20
-0.2140567275715382
 30
0.0
 11
-0.2061455892683703
 21
-0.0453407939261635
 31
0.0
  0
LINE
  5
F7
100
AcDbEntity
100
AcDbLine
  8
muebles-bloques
 62
256
370
-1
  6
ByLayer
 10
-0.2435752448913586
 20
0.0000000000000027
 30
0.0
 11
-0.2061455892683703
 21
-0.0000000000000001
 31
0.0
  0
LINE
  5
F8
100
AcDbEntity
100
AcDbLine
  8
muebles-bloques
 62
256
370
-1
  6
ByLayer
 10
-0.2435752448913586
 20
-0.2593975214976987
 30
0.0
 11
-0.2061455892683703
 21
-0.2593975214977015
 31
0.0
  0
LINE
  5
F9
100
AcDbEntity
100
AcDbLine
  8
muebles-bloques
 62
256
370
-1
  6
ByLayer
 10
-0.2435752448913586
 20
-0.2156289068256863
 30
0.0
 11
-0.2435752448913497
 21
0.0000000000000027
 31
0.0
  0
LINE
  5
FA
100
AcDbEntity
100
AcDbLine
  8
muebles-bloques
 62
256
370
-1
  6
ByLayer
 10
-0.2435752448913586
 20
-0.0453407939261606
 30
0.0
 11
-0.2435752448913586
 21
-0.2593975214976987
 31
0.0
  0
LINE
  5
FB
100
AcDbEntity
100
AcDbLine
  8
muebles-bloques
 62
256
370
-1
  6
ByLayer
 10
0.0
 20
-0.0453407939261606
 30
0.0
 11
-0.0000000000000089
 21
-0.2593975214976987
 31
0.0
  0
LINE
  5
FC
100
AcDbEntity
100
AcDbLine
  8
muebles-bloques
 62
256
370
-1
  6
ByLayer
 10
0.0
 20
-0.2156289068256863
 30
0.0
 11
0.0
 21
0.0000000000000027
 31
0.0
  0
LINE
  5
FD
100
AcDbEntity
100
AcDbLine
  8
muebles-bloques
 62
256
370
-1
  6
ByLayer
 10
0.0
 20
-0.1296987607488495
 30
0.0
 11
0.0
 21
-0.0437686146720155
 31
0.0
  0
LINE
  5
FE
100
AcDbEntity
100
AcDbLine
  8
muebles-bloques
 62
256
370
-1
  6
ByLayer
 10
0.0
 20
-0.0000000000000001
 30
0.0
 11
-0.0374296556229901
 21
-0.0000000000000001
 31
0.0
  0
LINE
  5
FF
100
AcDbEntity
100
AcDbLine
  8
muebles-bloques
 62
256
370
-1
  6
ByLayer
 10
0.0
 20
-0.2593975214977015
 30
0.0
 11
-0.0374296556229901
 21
-0.2593975214977015
 31
0.0
  0
LWPOLYLINE
  5
100
  8
muebles-bloques
 62
256
370
-1
  6
ByLayer
100
AcDbEntity
100
AcDbPolyline
 90
2
 70
0
 10
-0.2435752448913588
 20
0.0000000000000023
 30
0.0
 42
0.1413605054568482
 10
-0.7208007303725292
 20
-0.0197198336827395
 30
0.0
 42
0.1413605054568482
  0
LWPOLYLINE
  5
101
  8
muebles-bloques
 62
256
370
-1
  6
ByLayer
100
AcDbEntity
100
AcDbPolyline
 90
2
 70
0
 10
-0.7208007303725204
 20
-0.0197198336827662
 30
0.0
 42
0.6564228966725764
 10
-0.720800730372499
 20
-0.239677687814875
 30
0.0
 42
0.6564228966725764
  0
LWPOLYLINE
  5
102
  8
muebles-bloques
 62
256
370
-1
  6
ByLayer
100
AcDbEntity
100
AcDbPolyline
 90
2
 70
0
 10
-0.7208007303725209
 20
-0.23967768781493
 30
0.0
 42
0.1413605054567934
 10
-0.2435752448913592
 20
-0.2593975214976964
 30
0.0
 42
0.1413605054567934
  0
LWPOLYLINE
  5
103
  8
muebles-bloques
 62
256
370
-1
  6
ByLayer
100
AcDbEntity
100
AcDbPolyline
 90
129
 70
0
 10
-0.6981068535915203
 20
-0.1296987174923758
 30
0.0
 10
-0.6979068535915189
 20
-0.1348328174923758
 30
0.0
 10
-0.6972068535915188
 20
-0.1399544174923758
 30
0.0
 10
-0.6960068535915198
 20
-0.1450513174923758
 30
0.0
 10
-0.6943068535915202
 20
-0.1501113174923758
 30
0.0
 10
-0.6922068535915198
 20
-0.1551221174923758
 30
0.0
 10
-0.6896068535915187
 20
-0.1600716174923758
 30
0.0
 10
-0.6865068535915189
 20
-0.1649480174923758
 30
0.0
 10
-0.6830068535915199
 20
-0.1697394174923758
 30
0.0
 10
-0.6791068535915201
 20
-0.1744344174923758
 30
0.0
 10
-0.6747068535915197
 20
-0.1790216174923758
 30
0.0
 10
-0.6699068535915203
 20
-0.1834900174923758
 30
0.0
 10
-0.6647068535915199
 20
-0.1878288174923758
 30
0.0
 10
-0.659006853591519
 20
-0.1920275174923758
 30
0.0
 10
-0.6530068535915188
 20
-0.1960762174923758
 30
0.0
 10
-0.6467068535915193
 20
-0.1999652174923758
 30
0.0
 10
-0.6400068535915189
 20
-0.2036842174923758
 30
0.0
 10
-0.6329068535915194
 20
-0.2072252174923758
 30
0.0
 10
-0.6255068535915189
 20
-0.2105802174923758
 30
0.0
 10
-0.6178068535915191
 20
-0.2137392174923758
 30
0.0
 10
-0.6099068535915198
 20
-0.2166962174923758
 30
0.0
 10
-0.6016068535915196
 20
-0.2194442174923759
 30
0.0
 10
-0.5932068535915196
 20
-0.2219752174923759
 30
0.0
 10
-0.5845068535915203
 20
-0.2242842174923758
 30
0.0
 10
-0.57550685359152
 20
-0.2263652174923758
 30
0.0
 10
-0.5665068535915196
 20
-0.2282142174923759
 30
0.0
 10
-0.55720685359152
 20
-0.2298242174923759
 30
0.0
 10
-0.5478068535915188
 20
-0.2311942174923758
 30
0.0
 10
-0.5383068535915196
 20
-0.2323192174923758
 30
0.0
 10
-0.5287068535915189
 20
-0.2331972174923758
 30
0.0
 10
-0.5190068535915202
 20
-0.2338262174923758
 30
0.0
 10
-0.5093068535915197
 20
-0.2342042174923759
 30
0.0
 10
-0.4996068535915192
 20
-0.2343302174923758
 30
0.0
 10
-0.489806853591519
 20
-0.2342042174923759
 30
0.0
 10
-0.4801068535915203
 20
-0.2338262174923758
 30
0.0
 10
-0.4704068535915198
 20
-0.2331972174923758
 30
0.0
 10
-0.4608068535915191
 20
-0.2323192174923758
 30
0.0
 10
-0.4513068535915199
 20
-0.2311942174923758
 30
0.0
 10
-0.4419068535915187
 20
-0.2298242174923759
 30
0.0
 10
-0.4327068535915188
 20
-0.2282142174923759
 30
0.0
 10
-0.4236068535915187
 20
-0.2263652174923758
 30
0.0
 10
-0.4147068535915199
 20
-0.2242842174923758
 30
0.0
 10
-0.4060068535915189
 20
-0.2219752174923759
 30
0.0
 10
-0.3975068535915192
 20
-0.2194442174923759
 30
0.0
 10
-0.3893068535915187
 20
-0.2166962174923758
 30
0.0
 10
-0.3813068535915196
 20
-0.2137392174923758
 30
0.0
 10
-0.3736068535915198
 20
-0.2105802174923758
 30
0.0
 10
-0.3662068535915193
 20
-0.2072252174923758
 30
0.0
 10
-0.3592068535915196
 20
-0.2036842174923758
 30
0.0
 10
-0.3524068535915195
 20
-0.1999652174923758
 30
0.0
 10
-0.3461068535915199
 20
-0.1960762174923758
 30
0.0
 10
-0.3401068535915197
 20
-0.1920275174923758
 30
0.0
 10
-0.3345068535915203
 20
-0.1878288174923758
 30
0.0
 10
-0.32930685359152
 20
-0.1834900174923758
 30
0.0
 10
-0.3245068535915188
 20
-0.1790216174923758
 30
0.0
 10
-0.3201068535915201
 20
-0.1744344174923758
 30
0.0
 10
-0.3161068535915188
 20
-0.1697394174923758
 30
0.0
 10
-0.3126068535915199
 20
-0.1649480174923758
 30
0.0
 10
-0.3096068535915197
 20
-0.1600716174923758
 30
0.0
 10
-0.3070068535915187
 20
-0.1551221174923758
 30
0.0
 10
-0.3048068535915203
 20
-0.1501113174923758
 30
0.0
 10
-0.3032068535915187
 20
-0.1450513174923758
 30
0.0
 10
-0.3020068535915197
 20
-0.1399544174923758
 30
0.0
 10
-0.3012068535915198
 20
-0.1348328174923758
 30
0.0
 10
-0.3010068535915202
 20
-0.1296987174923758
 30
0.0
 10
-0.3012068535915198
 20
-0.1245647174923758
 30
0.0
 10
-0.3020068535915197
 20
-0.1194431174923758
 30
0.0
 10
-0.3032068535915187
 20
-0.1143461174923758
 30
0.0
 10
-0.3048068535915203
 20
-0.1092862174923758
 30
0.0
 10
-0.3070068535915187
 20
-0.1042754174923758
 30
0.0
 10
-0.3096068535915197
 20
-0.0993258874923758
 30
0.0
 10
-0.3126068535915199
 20
-0.0944495274923758
 30
0.0
 10
-0.3161068535915188
 20
-0.0896580874923758
 30
0.0
 10
-0.3201068535915201
 20
-0.0849631074923758
 30
0.0
 10
-0.3245068535915188
 20
-0.0803759174923758
 30
0.0
 10
-0.32930685359152
 20
-0.0759075174923758
 30
0.0
 10
-0.3345068535915203
 20
-0.0715687174923758
 30
0.0
 10
-0.3401068535915197
 20
-0.0673699174923758
 30
0.0
 10
-0.3461068535915199
 20
-0.0633213174923758
 30
0.0
 10
-0.3524068535915195
 20
-0.0594326174923758
 30
0.0
 10
-0.3592068535915196
 20
-0.0557132174923758
 30
0.0
 10
-0.3662068535915193
 20
-0.0521720174923758
 30
0.0
 10
-0.3736068535915198
 20
-0.0488176174923758
 30
0.0
 10
-0.3813068535915196
 20
-0.0456581174923758
 30
0.0
 10
-0.3893068535915187
 20
-0.0427010174923758
 30
0.0
 10
-0.3975068535915192
 20
-0.0399535174923758
 30
0.0
 10
-0.4060068535915189
 20
-0.0374222174923758
 30
0.0
 10
-0.4147068535915199
 20
-0.0351131174923758
 30
0.0
 10
-0.4236068535915187
 20
-0.0330320174923758
 30
0.0
 10
-0.4327068535915188
 20
-0.0311837174923758
 30
0.0
 10
-0.4419068535915187
 20
-0.0295728174923758
 30
0.0
 10
-0.4513068535915199
 20
-0.0282031174923758
 30
0.0
 10
-0.4608068535915191
 20
-0.0270779174923758
 30
0.0
 10
-0.4704068535915198
 20
-0.0261999174923758
 30
0.0
 10
-0.4801068535915203
 20
-0.0255713174923758
 30
0.0
 10
-0.489806853591519
 20
-0.0251935174923758
 30
0.0
 10
-0.4996068535915192
 20
-0.0250674174923758
 30
0.0
 10
-0.5093068535915197
 20
-0.0251935174923758
 30
0.0
 10
-0.5190068535915202
 20
-0.0255713174923758
 30
0.0
 10
-0.5287068535915189
 20
-0.0261999174923758
 30
0.0
 10
-0.5383068535915196
 20
-0.0270779174923758
 30
0.0
 10
-0.5478068535915188
 20
-0.0282031174923758
 30
0.0
 10
-0.55720685359152
 20
-0.0295728174923758
 30
0.0
 10
-0.5665068535915196
 20
-0.0311837174923758
 30
0.0
 10
-0.57550685359152
 20
-0.0330320174923758
 30
0.0
 10
-0.5845068535915203
 20
-0.0351131174923758
 30
0.0
 10
-0.5932068535915196
 20
-0.0374222174923758
 30
0.0
 10
-0.6016068535915196
 20
-0.0399535174923758
 30
0.0
 10
-0.6099068535915198
 20
-0.0427010174923758
 30
0.0
 10
-0.6178068535915191
 20
-0.0456581174923758
 30
0.0
 10
-0.6255068535915189
 20
-0.0488176174923758
 30
0.0
 10
-0.6329068535915194
 20
-0.0521720174923758
 30
0.0
 10
-0.6400068535915189
 20
-0.0557132174923758
 30
0.0
 10
-0.6467068535915193
 20
-0.0594326174923758
 30
0.0
 10
-0.6530068535915188
 20
-0.0633213174923758
 30
0.0
 10
-0.659006853591519
 20
-0.0673699174923758
 30
0.0
 10
-0.6647068535915199
 20
-0.0715687174923758
 30
0.0
 10
-0.6699068535915203
 20
-0.0759075174923758
 30
0.0
 10
-0.6747068535915197
 20
-0.0803759174923758
 30
0.0
 10
-0.6791068535915201
 20
-0.0849631074923758
 30
0.0
 10
-0.6830068535915199
 20
-0.0896580874923758
 30
0.0
 10
-0.6865068535915189
 20
-0.0944495274923758
 30
0.0
 10
-0.6896068535915187
 20
-0.0993258874923758
 30
0.0
 10
-0.6922068535915198
 20
-0.1042754174923758
 30
0.0
 10
-0.6943068535915202
 20
-0.1092862174923758
 30
0.0
 10
-0.6960068535915198
 20
-0.1143461174923758
 30
0.0
 10
-0.6972068535915188
 20
-0.1194431174923758
 30
0.0
 10
-0.6979068535915189
 20
-0.1245647174923758
 30
0.0
 10
-0.6981068535915203
 20
-0.1296987174923758
 30
0.0
  0
ARC
  5
104
100
AcDbEntity
  8
muebles-bloques
 62
256
370
-1
  6
ByLayer
100
AcDbCircle
 10
-0.3918011153141574
 20
-0.1290302420172697
 30
0.0
 40
0.0546257208887053
100
AcDbArc
 50
49.360608322363511
 51
310.63939167763641
  0
LINE
  5
105
100
AcDbEntity
100
AcDbLine
  8
muebles-bloques
 62
256
370
-1
  6
ByLayer
 10
-0.3562235977908159
 20
-0.0875789497631302
 30
0.0
 11
-0.3562235977908159
 21
-0.1704815342728799
 31
0.0
  0
LINE
  5
106
100
AcDbEntity
100
AcDbLine
  8
muebles-bloques
 62
256
370
-1
  6
ByLayer
 10
0.0
 20
0.0
 30
0.0
 11
0.0
 21
-0.2593975214977015
 31
0.0
  0
LINE
  5
107
100
AcDbEntity
100
AcDbLine
  8
sanitarios
 62
256
370
-1
  6
ByLayer
 10
-0.2435752448913586
 20
-0.1296987607488495
 30
0.0
 11
-0.2435752448913586
 21
-0.0437686146720126
 31
0.0
  0
LINE
  5
108
100
AcDbEntity
100
AcDbLine
  8
sanitarios
 62
256
370
-1
  6
ByLayer
 10
-0.2061455892683703
 20
0.0453407939261603
 30
0.0
 11
-0.0374296556229901
 21
0.0453407939261603
 31
0.0
  0
LINE
  5
109
100
AcDbEntity
100
AcDbLine
  8
sanitarios
 62
256
370
-1
  6
ByLayer
 10
-0.2061455892683703
 20
-0.304738315423862
 30
0.0
 11
-0.0374296556229901
 21
-0.304738315423862
 31
0.0
  0
LINE
  5
10A
100
AcDbEntity
100
AcDbLine
  8
sanitarios
 62
256
370
-1
  6
ByLayer
 10
-0.0374296556229901
 20
-0.304738315423862
 30
0.0
 11
-0.0374296556229901
 21
0.0453407939261603
 31
0.0
  0
LINE
  5
10B
100
AcDbEntity
100
AcDbLine
  8
sanitarios
 62
256
370
-1
  6
ByLayer
 10
-0.2061455892683703
 20
-0.0453407939261635
 30
0.0
 11
-0.2061455892683703
 21
0.0453407939261603
 31
0.0
  0
LINE
  5
10C
100
AcDbEntity
100
AcDbLine
  8
sanitarios
 62
256
370
-1
  6
ByLayer
 10
-0.2061455892683703
 20
-0.304738315423862
 30
0.0
 11
-0.2061455892683703
 21
-0.2140567275715382
 31
0.0
  0
LINE
  5
10D
100
AcDbEntity
100
AcDbLine
  8
sanitarios
 62
256
370
-1
  6
ByLayer
 10
-0.2061455892683703
 20
-0.2140567275715382
 30
0.0
 11
-0.2061455892683703
 21
-0.0453407939261635
 31
0.0
  0
LINE
  5
10E
100
AcDbEntity
100
AcDbLine
  8
sanitarios
 62
256
370
-1
  6
ByLayer
 10
-0.2435752448913586
 20
0.0000000000000027
 30
0.0
 11
-0.2061455892683703
 21
-0.0000000000000001
 31
0.0
  0
LINE
  5
10F
100
AcDbEntity
100
AcDbLine
  8
sanitarios
 62
256
370
-1
  6
ByLayer
 10
-0.2435752448913586
 20
-0.2593975214976987
 30
0.0
 11
-0.2061455892683703
 21
-0.2593975214977015
 31
0.0
  0
LINE
  5
110
100
AcDbEntity
100
AcDbLine
  8
sanitarios
 62
256
370
-1
  6
ByLayer
 10
-0.2435752448913586
 20
-0.2156289068256863
 30
0.0
 11
-0.2435752448913497
 21
0.0000000000000027
 31
0.0
  0
LINE
  5
111
100
AcDbEntity
100
AcDbLine
  8
sanitarios
 62
256
370
-1
  6
ByLayer
 10
-0.2435752448913586
 20
-0.0453407939261606
 30
0.0
 11
-0.2435752448913586
 21
-0.2593975214976987
 31
0.0
  0
LINE
  5
112
100
AcDbEntity
100
AcDbLine
  8
sanitarios
 62
256
370
-1
  6
ByLayer
 10
0.0
 20
-0.0453407939261606
 30
0.0
 11
-0.0000000000000089
 21
-0.2593975214976987
 31
0.0
  0
LINE
  5
113
100
AcDbEntity
100
AcDbLine
  8
sanitarios
 62
256
370
-1
  6
ByLayer
 10
0.0
 20
-0.2156289068256863
 30
0.0
 11
0.0
 21
0.0000000000000027
 31
0.0
  0
LINE
  5
114
100
AcDbEntity
100
AcDbLine
  8
sanitarios
 62
256
370
-1
  6
ByLayer
 10
0.0
 20
-0.1296987607488495
 30
0.0
 11
0.0
 21
-0.0437686146720155
 31
0.0
  0
LINE
  5
115
100
AcDbEntity
100
AcDbLine
  8
sanitarios
 62
256
370
-1
  6
ByLayer
 10
0.0
 20
-0.0000000000000001
 30
0.0
 11
-0.0374296556229901
 21
-0.0000000000000001
 31
0.0
  0
LINE
  5
116
100
AcDbEntity
100
AcDbLine
  8
sanitarios
 62
256
370
-1
  6
ByLayer
 10
0.0
 20
-0.2593975214977015
 30
0.0
 11
-0.0374296556229901
 21
-0.2593975214977015
 31
0.0
  0
LWPOLYLINE
  5
117
  8
sanitarios
 62
256
370
-1
  6
ByLayer
100
AcDbEntity
100
AcDbPolyline
 90
2
 70
0
 10
-0.2435752448913588
 20
0.0000000000000023
 30
0.0
 42
0.1413605054568482
 10
-0.7208007303725292
 20
-0.0197198336827395
 30
0.0
 42
0.1413605054568482
  0
LWPOLYLINE
  5
118
  8
sanitarios
 62
256
370
-1
  6
ByLayer
100
AcDbEntity
100
AcDbPolyline
 90
2
 70
0
 10
-0.7208007303725204
 20
-0.0197198336827662
 30
0.0
 42
0.6564228966725764
 10
-0.720800730372499
 20
-0.239677687814875
 30
0.0
 42
0.6564228966725764
  0
LWPOLYLINE
  5
119
  8
sanitarios
 62
256
370
-1
  6
ByLayer
100
AcDbEntity
100
AcDbPolyline
 90
2
 70
0
 10
-0.7208007303725209
 20
-0.23967768781493
 30
0.0
 42
0.1413605054567934
 10
-0.2435752448913592
 20
-0.2593975214976964
 30
0.0
 42
0.1413605054567934
  0
LWPOLYLINE
  5
11A
  8
sanitarios
 62
256
370
-1
  6
ByLayer
100
AcDbEntity
100
AcDbPolyline
 90
129
 70
0
 10
-0.6981068535915203
 20
-0.1296987174923758
 30
0.0
 10
-0.6979068535915189
 20
-0.1348328174923758
 30
0.0
 10
-0.6972068535915188
 20
-0.1399544174923758
 30
0.0
 10
-0.6960068535915198
 20
-0.1450513174923758
 30
0.0
 10
-0.6943068535915202
 20
-0.1501113174923758
 30
0.0
 10
-0.6922068535915198
 20
-0.1551221174923758
 30
0.0
 10
-0.6896068535915187
 20
-0.1600716174923758
 30
0.0
 10
-0.6865068535915189
 20
-0.1649480174923758
 30
0.0
 10
-0.6830068535915199
 20
-0.1697394174923758
 30
0.0
 10
-0.6791068535915201
 20
-0.1744344174923758
 30
0.0
 10
-0.6747068535915197
 20
-0.1790216174923758
 30
0.0
 10
-0.6699068535915203
 20
-0.1834900174923758
 30
0.0
 10
-0.6647068535915199
 20
-0.1878288174923758
 30
0.0
 10
-0.659006853591519
 20
-0.1920275174923758
 30
0.0
 10
-0.6530068535915188
 20
-0.1960762174923758
 30
0.0
 10
-0.6467068535915193
 20
-0.1999652174923758
 30
0.0
 10
-0.6400068535915189
 20
-0.2036842174923758
 30
0.0
 10
-0.6329068535915194
 20
-0.2072252174923758
 30
0.0
 10
-0.6255068535915189
 20
-0.2105802174923758
 30
0.0
 10
-0.6178068535915191
 20
-0.2137392174923758
 30
0.0
 10
-0.6099068535915198
 20
-0.2166962174923758
 30
0.0
 10
-0.6016068535915196
 20
-0.2194442174923759
 30
0.0
 10
-0.5932068535915196
 20
-0.2219752174923759
 30
0.0
 10
-0.5845068535915203
 20
-0.2242842174923758
 30
0.0
 10
-0.57550685359152
 20
-0.2263652174923758
 30
0.0
 10
-0.5665068535915196
 20
-0.2282142174923759
 30
0.0
 10
-0.55720685359152
 20
-0.2298242174923759
 30
0.0
 10
-0.5478068535915188
 20
-0.2311942174923758
 30
0.0
 10
-0.5383068535915196
 20
-0.2323192174923758
 30
0.0
 10
-0.5287068535915189
 20
-0.2331972174923758
 30
0.0
 10
-0.5190068535915202
 20
-0.2338262174923758
 30
0.0
 10
-0.5093068535915197
 20
-0.2342042174923759
 30
0.0
 10
-0.4996068535915192
 20
-0.2343302174923758
 30
0.0
 10
-0.489806853591519
 20
-0.2342042174923759
 30
0.0
 10
-0.4801068535915203
 20
-0.2338262174923758
 30
0.0
 10
-0.4704068535915198
 20
-0.2331972174923758
 30
0.0
 10
-0.4608068535915191
 20
-0.2323192174923758
 30
0.0
 10
-0.4513068535915199
 20
-0.2311942174923758
 30
0.0
 10
-0.4419068535915187
 20
-0.2298242174923759
 30
0.0
 10
-0.4327068535915188
 20
-0.2282142174923759
 30
0.0
 10
-0.4236068535915187
 20
-0.2263652174923758
 30
0.0
 10
-0.4147068535915199
 20
-0.2242842174923758
 30
0.0
 10
-0.4060068535915189
 20
-0.2219752174923759
 30
0.0
 10
-0.3975068535915192
 20
-0.2194442174923759
 30
0.0
 10
-0.3893068535915187
 20
-0.2166962174923758
 30
0.0
 10
-0.3813068535915196
 20
-0.2137392174923758
 30
0.0
 10
-0.3736068535915198
 20
-0.2105802174923758
 30
0.0
 10
-0.3662068535915193
 20
-0.2072252174923758
 30
0.0
 10
-0.3592068535915196
 20
-0.2036842174923758
 30
0.0
 10
-0.3524068535915195
 20
-0.1999652174923758
 30
0.0
 10
-0.3461068535915199
 20
-0.1960762174923758
 30
0.0
 10
-0.3401068535915197
 20
-0.1920275174923758
 30
0.0
 10
-0.3345068535915203
 20
-0.1878288174923758
 30
0.0
 10
-0.32930685359152
 20
-0.1834900174923758
 30
0.0
 10
-0.3245068535915188
 20
-0.1790216174923758
 30
0.0
 10
-0.3201068535915201
 20
-0.1744344174923758
 30
0.0
 10
-0.3161068535915188
 20
-0.1697394174923758
 30
0.0
 10
-0.3126068535915199
 20
-0.1649480174923758
 30
0.0
 10
-0.3096068535915197
 20
-0.1600716174923758
 30
0.0
 10
-0.3070068535915187
 20
-0.1551221174923758
 30
0.0
 10
-0.3048068535915203
 20
-0.1501113174923758
 30
0.0
 10
-0.3032068535915187
 20
-0.1450513174923758
 30
0.0
 10
-0.3020068535915197
 20
-0.1399544174923758
 30
0.0
 10
-0.3012068535915198
 20
-0.1348328174923758
 30
0.0
 10
-0.3010068535915202
 20
-0.1296987174923758
 30
0.0
 10
-0.3012068535915198
 20
-0.1245647174923758
 30
0.0
 10
-0.3020068535915197
 20
-0.1194431174923758
 30
0.0
 10
-0.3032068535915187
 20
-0.1143461174923758
 30
0.0
 10
-0.3048068535915203
 20
-0.1092862174923758
 30
0.0
 10
-0.3070068535915187
 20
-0.1042754174923758
 30
0.0
 10
-0.3096068535915197
 20
-0.0993258874923758
 30
0.0
 10
-0.3126068535915199
 20
-0.0944495274923758
 30
0.0
 10
-0.3161068535915188
 20
-0.0896580874923758
 30
0.0
 10
-0.3201068535915201
 20
-0.0849631074923758
 30
0.0
 10
-0.3245068535915188
 20
-0.0803759174923758
 30
0.0
 10
-0.32930685359152
 20
-0.0759075174923758
 30
0.0
 10
-0.3345068535915203
 20
-0.0715687174923758
 30
0.0
 10
-0.3401068535915197
 20
-0.0673699174923758
 30
0.0
 10
-0.3461068535915199
 20
-0.0633213174923758
 30
0.0
 10
-0.3524068535915195
 20
-0.0594326174923758
 30
0.0
 10
-0.3592068535915196
 20
-0.0557132174923758
 30
0.0
 10
-0.3662068535915193
 20
-0.0521720174923758
 30
0.0
 10
-0.3736068535915198
 20
-0.0488176174923758
 30
0.0
 10
-0.3813068535915196
 20
-0.0456581174923758
 30
0.0
 10
-0.3893068535915187
 20
-0.0427010174923758
 30
0.0
 10
-0.3975068535915192
 20
-0.0399535174923758
 30
0.0
 10
-0.4060068535915189
 20
-0.0374222174923758
 30
0.0
 10
-0.4147068535915199
 20
-0.0351131174923758
 30
0.0
 10
-0.4236068535915187
 20
-0.0330320174923758
 30
0.0
 10
-0.4327068535915188
 20
-0.0311837174923758
 30
0.0
 10
-0.4419068535915187
 20
-0.0295728174923758
 30
0.0
 10
-0.4513068535915199
 20
-0.0282031174923758
 30
0.0
 10
-0.4608068535915191
 20
-0.0270779174923758
 30
0.0
 10
-0.4704068535915198
 20
-0.0261999174923758
 30
0.0
 10
-0.4801068535915203
 20
-0.0255713174923758
 30
0.0
 10
-0.489806853591519
 20
-0.0251935174923758
 30
0.0
 10
-0.4996068535915192
 20
-0.0250674174923758
 30
0.0
 10
-0.5093068535915197
 20
-0.0251935174923758
 30
0.0
 10
-0.5190068535915202
 20
-0.0255713174923758
 30
0.0
 10
-0.5287068535915189
 20
-0.0261999174923758
 30
0.0
 10
-0.5383068535915196
 20
-0.0270779174923758
 30
0.0
 10
-0.5478068535915188
 20
-0.0282031174923758
 30
0.0
 10
-0.55720685359152
 20
-0.0295728174923758
 30
0.0
 10
-0.5665068535915196
 20
-0.0311837174923758
 30
0.0
 10
-0.57550685359152
 20
-0.0330320174923758
 30
0.0
 10
-0.5845068535915203
 20
-0.0351131174923758
 30
0.0
 10
-0.5932068535915196
 20
-0.0374222174923758
 30
0.0
 10
-0.6016068535915196
 20
-0.0399535174923758
 30
0.0
 10
-0.6099068535915198
 20
-0.0427010174923758
 30
0.0
 10
-0.6178068535915191
 20
-0.0456581174923758
 30
0.0
 10
-0.6255068535915189
 20
-0.0488176174923758
 30
0.0
 10
-0.6329068535915194
 20
-0.0521720174923758
 30
0.0
 10
-0.6400068535915189
 20
-0.0557132174923758
 30
0.0
 10
-0.6467068535915193
 20
-0.0594326174923758
 30
0.0
 10
-0.6530068535915188
 20
-0.0633213174923758
 30
0.0
 10
-0.659006853591519
 20
-0.0673699174923758
 30
0.0
 10
-0.6647068535915199
 20
-0.0715687174923758
 30
0.0
 10
-0.6699068535915203
 20
-0.0759075174923758
 30
0.0
 10
-0.6747068535915197
 20
-0.0803759174923758
 30
0.0
 10
-0.6791068535915201
 20
-0.0849631074923758
 30
0.0
 10
-0.6830068535915199
 20
-0.0896580874923758
 30
0.0
 10
-0.6865068535915189
 20
-0.0944495274923758
 30
0.0
 10
-0.6896068535915187
 20
-0.0993258874923758
 30
0.0
 10
-0.6922068535915198
 20
-0.1042754174923758
 30
0.0
 10
-0.6943068535915202
 20
-0.1092862174923758
 30
0.0
 10
-0.6960068535915198
 20
-0.1143461174923758
 30
0.0
 10
-0.6972068535915188
 20
-0.1194431174923758
 30
0.0
 10
-0.6979068535915189
 20
-0.1245647174923758
 30
0.0
 10
-0.6981068535915203
 20
-0.1296987174923758
 30
0.0
  0
ARC
  5
11B
100
AcDbEntity
  8
sanitarios
 62
256
370
-1
  6
ByLayer
100
AcDbCircle
 10
-0.3918011153141574
 20
-0.1290302420172697
 30
0.0
 40
0.0546257208887053
100
AcDbArc
 50
49.360608322363511
 51
310.63939167763641
  0
LINE
  5
11C
100
AcDbEntity
100
AcDbLine
  8
sanitarios
 62
256
370
-1
  6
ByLayer
 10
-0.3562235977908159
 20
-0.0875789497631302
 30
0.0
 11
-0.3562235977908159
 21
-0.1704815342728799
 31
0.0
  0
LINE
  5
11D
100
AcDbEntity
100
AcDbLine
  8
sanitarios
 62
256
370
-1
  6
ByLayer
 10
0.0
 20
0.0
 30
0.0
 11
0.0
 21
-0.2593975214977015
 31
0.0
  0
ENDBLK
  5
11E
100
AcDbEntity
  8
0
100
AcDbBlockEnd
  0
BLOCK
  5
11F
100
AcDbEntity
  8
0
100
AcDbBlockBegin
  2
Bide
 70
0
 10
0.0
 20
0.0
 30
0.0
  3
Bide
  1

  0
LWPOLYLINE
  5
120
  8
muebles-bloques
 62
256
370
-1
  6
ByLayer
100
AcDbEntity
100
AcDbPolyline
 90
7
 70
0
 10
-0.6457596363661899
 20
-0.1739458877237889
 30
0.0
 10
-0.6457596363661899
 20
-0.0682139759135357
 30
0.0
 42
-0.4142135623730635
 10
-0.5614016695435105
 20
0.0161439909091529
 30
0.0
 10
-0.1183892666671405
 20
0.0161439909091529
 30
0.0
 10
-0.1183892666671405
 20
-0.2583038545464779
 30
0.0
 10
-0.5614016695435105
 20
-0.2583038545464779
 30
0.0
 42
-0.4142135623730703
 10
-0.6457596363661897
 20
-0.1739458877237916
 30
0.0
  0
LINE
  5
121
100
AcDbEntity
100
AcDbLine
  8
muebles-bloques
 62
256
370
-1
  6
ByLayer
 10
-0.4806817149977309
 20
-0.0295973166667831
 30
0.0
 11
-0.1775839000007107
 21
-0.0295973166667831
 31
0.0
  0
LINE
  5
122
100
AcDbEntity
100
AcDbLine
  8
muebles-bloques
 62
256
370
-1
  6
ByLayer
 10
-0.1775839000007107
 20
-0.2125625469705388
 30
0.0
 11
-0.4806817149977309
 21
-0.2125625469705388
 31
0.0
  0
ARC
  5
123
100
AcDbEntity
  8
muebles-bloques
 62
256
370
-1
  6
ByLayer
100
AcDbCircle
 10
-0.4806817149977309
 20
-0.12820458014785
 30
0.0
 40
0.0843579668226886
100
AcDbArc
 50
180.0
 51
270.0
  0
LINE
  5
124
100
AcDbEntity
100
AcDbLine
  8
muebles-bloques
 62
256
370
-1
  6
ByLayer
 10
-0.5650396818204211
 20
-0.12820458014785
 30
0.0
 11
-0.5650396818204211
 21
-0.1139552834894718
 31
0.0
  0
ARC
  5
125
100
AcDbEntity
  8
muebles-bloques
 62
256
370
-1
  6
ByLayer
100
AcDbCircle
 10
-0.4806817149977309
 20
-0.1139552834894718
 30
0.0
 40
0.0843579668226886
100
AcDbArc
 50
90.0
 51
180.0
  0
LWPOLYLINE
  5
126
  8
muebles-bloques
 62
256
370
-1
  6
ByLayer
100
AcDbEntity
100
AcDbPolyline
 90
4
 70
1
 10
-0.1183892666671405
 20
-0.2421598636373219
 30
0.0
 10
-0.1183892666671405
 20
0.0
 30
0.0
 10
0.0
 20
0.0
 30
0.0
 10
0.0
 20
-0.2421598636373219
 30
0.0
  0
LINE
  5
127
100
AcDbEntity
100
AcDbLine
  8
muebles-bloques
 62
256
370
-1
  6
ByLayer
 10
-0.1775839000007107
 20
-0.1289979655070771
 30
0.0
 11
-0.1775839000007107
 21
-0.2125625469705388
 31
0.0
  0
LINE
  5
128
100
AcDbEntity
100
AcDbLine
  8
muebles-bloques
 62
256
370
-1
  6
ByLayer
 10
-0.2609138730585912
 20
-0.1289979655070771
 30
0.0
 11
-0.2609138730585912
 21
-0.1131618981302476
 31
0.0
  0
LWPOLYLINE
  5
129
  8
muebles-bloques
 62
256
370
-1
  6
ByLayer
100
AcDbEntity
100
AcDbPolyline
 90
4
 70
1
 10
-0.2751663336977313
 20
-0.1289979655070771
 30
0.0
 10
-0.2751663336977313
 20
-0.1131618981302476
 30
0.0
 10
-0.1453105812077506
 20
-0.1131618981302476
 30
0.0
 10
-0.1453105812077506
 20
-0.1289979655070771
 30
0.0
  0
LINE
  5
12A
100
AcDbEntity
100
AcDbLine
  8
muebles-bloques
 62
256
370
-1
  6
ByLayer
 10
-0.1775839000007107
 20
-0.0295973166667831
 30
0.0
 11
-0.1775839000007107
 21
-0.1131618981302476
 31
0.0
  0
LWPOLYLINE
  5
12B
  8
sanitarios
 62
256
370
-1
  6
ByLayer
100
AcDbEntity
100
AcDbPolyline
 90
7
 70
0
 10
-0.6457596363661899
 20
-0.1739458877237889
 30
0.0
 10
-0.6457596363661899
 20
-0.0682139759135357
 30
0.0
 42
-0.4142135623730635
 10
-0.5614016695435105
 20
0.0161439909091529
 30
0.0
 10
-0.1183892666671405
 20
0.0161439909091529
 30
0.0
 10
-0.1183892666671405
 20
-0.2583038545464779
 30
0.0
 10
-0.5614016695435105
 20
-0.2583038545464779
 30
0.0
 42
-0.4142135623730703
 10
-0.6457596363661897
 20
-0.1739458877237916
 30
0.0
  0
LINE
  5
12C
100
AcDbEntity
100
AcDbLine
  8
sanitarios
 62
256
370
-1
  6
ByLayer
 10
-0.4806817149977309
 20
-0.0295973166667831
 30
0.0
 11
-0.1775839000007107
 21
-0.0295973166667831
 31
0.0
  0
LINE
  5
12D
100
AcDbEntity
100
AcDbLine
  8
sanitarios
 62
256
370
-1
  6
ByLayer
 10
-0.1775839000007107
 20
-0.2125625469705388
 30
0.0
 11
-0.4806817149977309
 21
-0.2125625469705388
 31
0.0
  0
ARC
  5
12E
100
AcDbEntity
  8
sanitarios
 62
256
370
-1
  6
ByLayer
100
AcDbCircle
 10
-0.4806817149977309
 20
-0.12820458014785
 30
0.0
 40
0.0843579668226886
100
AcDbArc
 50
180.0
 51
270.0
  0
LINE
  5
12F
100
AcDbEntity
100
AcDbLine
  8
sanitarios
 62
256
370
-1
  6
ByLayer
 10
-0.5650396818204211
 20
-0.12820458014785
 30
0.0
 11
-0.5650396818204211
 21
-0.1139552834894718
 31
0.0
  0
ARC
  5
130
100
AcDbEntity
  8
sanitarios
 62
256
370
-1
  6
ByLayer
100
AcDbCircle
 10
-0.4806817149977309
 20
-0.1139552834894718
 30
0.0
 40
0.0843579668226886
100
AcDbArc
 50
90.0
 51
180.0
  0
LWPOLYLINE
  5
131
  8
sanitarios
 62
256
370
-1
  6
ByLayer
100
AcDbEntity
100
AcDbPolyline
 90
4
 70
1
 10
-0.1183892666671405
 20
-0.2421598636373219
 30
0.0
 10
-0.1183892666671405
 20
0.0
 30
0.0
 10
0.0
 20
0.0
 30
0.0
 10
0.0
 20
-0.2421598636373219
 30
0.0
  0
LINE
  5
132
100
AcDbEntity
100
AcDbLine
  8
sanitarios
 62
256
370
-1
  6
ByLayer
 10
-0.1775839000007107
 20
-0.1289979655070771
 30
0.0
 11
-0.1775839000007107
 21
-0.2125625469705388
 31
0.0
  0
LINE
  5
133
100
AcDbEntity
100
AcDbLine
  8
sanitarios
 62
256
370
-1
  6
ByLayer
 10
-0.2609138730585912
 20
-0.1289979655070771
 30
0.0
 11
-0.2609138730585912
 21
-0.1131618981302476
 31
0.0
  0
LWPOLYLINE
  5
134
  8
sanitarios
 62
256
370
-1
  6
ByLayer
100
AcDbEntity
100
AcDbPolyline
 90
4
 70
1
 10
-0.2751663336977313
 20
-0.1289979655070771
 30
0.0
 10
-0.2751663336977313
 20
-0.1131618981302476
 30
0.0
 10
-0.1453105812077506
 20
-0.1131618981302476
 30
0.0
 10
-0.1453105812077506
 20
-0.1289979655070771
 30
0.0
  0
LINE
  5
135
100
AcDbEntity
100
AcDbLine
  8
sanitarios
 62
256
370
-1
  6
ByLayer
 10
-0.1775839000007107
 20
-0.0295973166667831
 30
0.0
 11
-0.1775839000007107
 21
-0.1131618981302476
 31
0.0
  0
ENDBLK
  5
136
100
AcDbEntity
  8
0
100
AcDbBlockEnd
  0
BLOCK
  5
137
100
AcDbEntity
  8
0
100
AcDbBlockBegin
  2
vitroceramica
 70
0
 10
0.0
 20
0.0
 30
0.0
  3
vitroceramica
  1

  0
CIRCLE
  5
138
100
AcDbEntity
100
AcDbCircle
  8
sanitarios
 62
256
370
-1
  6
ByLayer
 10
0.516035786566909
 20
0.1126392874057061
 30
0.0
 40
0.0885509992848747
  0
CIRCLE
  5
139
100
AcDbEntity
100
AcDbCircle
  8
sanitarios
 62
256
370
-1
  6
ByLayer
 10
0.516035786566909
 20
0.1126392874057061
 30
0.0
 40
0.0640436752570391
  0
CIRCLE
  5
13A
100
AcDbEntity
100
AcDbCircle
  8
sanitarios
 62
256
370
-1
  6
ByLayer
 10
0.2451218225858742
 20
0.1126392874057061
 30
0.0
 40
0.0885509992848747
  0
CIRCLE
  5
13B
100
AcDbEntity
100
AcDbCircle
  8
sanitarios
 62
256
370
-1
  6
ByLayer
 10
0.2451218225858742
 20
0.1126392874057061
 30
0.0
 40
0.0640436752570391
  0
CIRCLE
  5
13C
100
AcDbEntity
100
AcDbCircle
  8
sanitarios
 62
256
370
-1
  6
ByLayer
 10
0.516035786566909
 20
0.1126392874057061
 30
0.0
 40
0.0388321820202251
  0
CIRCLE
  5
13D
100
AcDbEntity
100
AcDbCircle
  8
sanitarios
 62
256
370
-1
  6
ByLayer
 10
0.516035786566909
 20
0.1126392874057061
 30
0.0
 40
0.0168642097417928
  0
CIRCLE
  5
13E
100
AcDbEntity
100
AcDbCircle
  8
sanitarios
 62
256
370
-1
  6
ByLayer
 10
0.2451218225858742
 20
0.1126392874057061
 30
0.0
 40
0.0388321820202251
  0
CIRCLE
  5
13F
100
AcDbEntity
100
AcDbCircle
  8
sanitarios
 62
256
370
-1
  6
ByLayer
 10
0.2451218225858742
 20
0.1126392874057061
 30
0.0
 40
0.0168642097417928
  0
LINE
  5
140
100
AcDbEntity
100
AcDbLine
  8
sanitarios
 62
256
370
-1
  6
ByLayer
 10
0.7274220027643583
 20
0.4217898341134458
 30
0.0
 11
0.7274220027643583
 21
0.0
 31
0.0
  0
LINE
  5
141
100
AcDbEntity
100
AcDbLine
  8
sanitarios
 62
256
370
-1
  6
ByLayer
 10
0.0
 20
0.0
 30
0.0
 11
0.0
 21
0.4217898341134458
 31
0.0
  0
CIRCLE
  5
142
100
AcDbEntity
100
AcDbCircle
  8
sanitarios
 62
256
370
-1
  6
ByLayer
 10
0.516035786566909
 20
0.310614876468764
 30
0.0
 40
0.0885509992848747
  0
CIRCLE
  5
143
100
AcDbEntity
100
AcDbCircle
  8
sanitarios
 62
256
370
-1
  6
ByLayer
 10
0.516035786566909
 20
0.310614876468764
 30
0.0
 40
0.0640436752570391
  0
CIRCLE
  5
144
100
AcDbEntity
100
AcDbCircle
  8
sanitarios
 62
256
370
-1
  6
ByLayer
 10
0.516035786566909
 20
0.310614876468764
 30
0.0
 40
0.0388321820202251
  0
CIRCLE
  5
145
100
AcDbEntity
100
AcDbCircle
  8
sanitarios
 62
256
370
-1
  6
ByLayer
 10
0.516035786566909
 20
0.310614876468764
 30
0.0
 40
0.0168642097417928
  0
CIRCLE
  5
146
100
AcDbEntity
100
AcDbCircle
  8
sanitarios
 62
256
370
-1
  6
ByLayer
 10
0.2451218225858742
 20
0.310614876468764
 30
0.0
 40
0.0885509992848747
  0
CIRCLE
  5
147
100
AcDbEntity
100
AcDbCircle
  8
sanitarios
 62
256
370
-1
  6
ByLayer
 10
0.2451218225858742
 20
0.310614876468764
 30
0.0
 40
0.0640436752570391
  0
CIRCLE
  5
148
100
AcDbEntity
100
AcDbCircle
  8
sanitarios
 62
256
370
-1
  6
ByLayer
 10
0.2451218225858742
 20
0.310614876468764
 30
0.0
 40
0.0388321820202251
  0
CIRCLE
  5
149
100
AcDbEntity
100
AcDbCircle
  8
sanitarios
 62
256
370
-1
  6
ByLayer
 10
0.2451218225858742
 20
0.310614876468764
 30
0.0
 40
0.0168642097417928
  0
LINE
  5
14A
100
AcDbEntity
100
AcDbLine
  8
sanitarios
 62
256
370
-1
  6
ByLayer
 10
0.0
 20
0.4217898341134458
 30
0.0
 11
0.7274220027643583
 21
0.4217898341134458
 31
0.0
  0
LINE
  5
14B
100
AcDbEntity
100
AcDbLine
  8
sanitarios
 62
256
370
-1
  6
ByLayer
 10
0.0
 20
0.0
 30
0.0
 11
0.7274220027643583
 21
0.0
 31
0.0
  0
ENDBLK
  5
14C
100
AcDbEntity
  8
0
100
AcDbBlockEnd
  0
BLOCK
  5
14D
100
AcDbEntity
  8
0
100
AcDbBlockBegin
  2
Fregadero
 70
0
 10
0.0
 20
0.0
 30
0.0
  3
Fregadero
  1

  0
LINE
  5
14E
100
AcDbEntity
100
AcDbLine
  8
sanitarios
 62
256
370
-1
  6
ByLayer
 10
0.0
 20
0.0
 30
0.0
 11
0.0
 21
0.4217898341134458
 31
0.0
  0
LWPOLYLINE
  5
14F
  8
sanitarios
 62
256
370
-1
  6
ByLayer
100
AcDbEntity
100
AcDbPolyline
 90
2
 70
0
 10
0.3570861596221491
 20
0.0235714295667879
 30
0.0
 10
0.2295155923579575
 20
0.0235714295667879
 30
0.0
  0
LINE
  5
150
100
AcDbEntity
100
AcDbLine
  8
sanitarios
 62
256
370
-1
  6
ByLayer
 10
0.7141723192442999
 20
0.0
 30
0.0
 11
0.7141723192442999
 21
0.4217898341134458
 31
0.0
  0
LINE
  5
151
100
AcDbEntity
100
AcDbLine
  8
sanitarios
 62
256
370
-1
  6
ByLayer
 10
0.3570861596221491
 20
0.3983716526602281
 30
0.0
 11
0.3570861596221491
 21
0.0235714295667879
 31
0.0
  0
LINE
  5
152
100
AcDbEntity
100
AcDbLine
  8
sanitarios
 62
256
370
-1
  6
ByLayer
 10
0.2078674348856069
 20
0.138620277350701
 30
0.0
 11
0.2295155923579575
 21
0.138620277350701
 31
0.0
  0
LINE
  5
153
100
AcDbEntity
100
AcDbLine
  8
sanitarios
 62
256
370
-1
  6
ByLayer
 10
0.0
 20
0.4217898341134458
 30
0.0
 11
0.7141723192442999
 21
0.4217898341134458
 31
0.0
  0
LINE
  5
154
100
AcDbEntity
100
AcDbLine
  8
sanitarios
 62
256
370
-1
  6
ByLayer
 10
0.0
 20
0.0
 30
0.0
 11
0.7141723192442999
 21
0.0
 31
0.0
  0
LINE
  5
155
100
AcDbEntity
100
AcDbLine
  8
sanitarios
 62
256
370
-1
  6
ByLayer
 10
0.65605603229465
 20
0.1010126043313999
 30
0.0
 11
0.65605603229465
 21
0.0852429606523302
 31
0.0
  0
LINE
  5
156
100
AcDbEntity
100
AcDbLine
  8
sanitarios
 62
256
370
-1
  6
ByLayer
 10
0.65605603229465
 20
0.0852429606523302
 30
0.0
 11
0.3722024460714195
 21
0.0852429606523302
 31
0.0
  0
LINE
  5
157
100
AcDbEntity
100
AcDbLine
  8
sanitarios
 62
256
370
-1
  6
ByLayer
 10
0.3722024460714195
 20
0.0852429606523302
 30
0.0
 11
0.3722024460714195
 21
0.1010126043313999
 31
0.0
  0
LINE
  5
158
100
AcDbEntity
100
AcDbLine
  8
sanitarios
 62
256
370
-1
  6
ByLayer
 10
0.3722024460714195
 20
0.1010126043313999
 30
0.0
 11
0.65605603229465
 21
0.1010126043313999
 31
0.0
  0
LINE
  5
159
100
AcDbEntity
100
AcDbLine
  8
sanitarios
 62
256
370
-1
  6
ByLayer
 10
0.65605603229465
 20
0.058265130316566
 30
0.0
 11
0.65605603229465
 21
0.0424954866374989
 31
0.0
  0
LINE
  5
15A
100
AcDbEntity
100
AcDbLine
  8
sanitarios
 62
256
370
-1
  6
ByLayer
 10
0.65605603229465
 20
0.0424954866374989
 30
0.0
 11
0.3722024460714195
 21
0.0424954866374989
 31
0.0
  0
LINE
  5
15B
100
AcDbEntity
100
AcDbLine
  8
sanitarios
 62
256
370
-1
  6
ByLayer
 10
0.3722024460714195
 20
0.0424954866374989
 30
0.0
 11
0.3722024460714195
 21
0.058265130316566
 31
0.0
  0
LINE
  5
15C
100
AcDbEntity
100
AcDbLine
  8
sanitarios
 62
256
370
-1
  6
ByLayer
 10
0.3722024460714195
 20
0.058265130316566
 30
0.0
 11
0.65605603229465
 21
0.058265130316566
 31
0.0
  0
LINE
  5
15D
100
AcDbEntity
100
AcDbLine
  8
sanitarios
 62
256
370
-1
  6
ByLayer
 10
0.65605603229465
 20
0.1570824485236408
 30
0.0
 11
0.65605603229465
 21
0.1413128048445751
 31
0.0
  0
LINE
  5
15E
100
AcDbEntity
100
AcDbLine
  8
sanitarios
 62
256
370
-1
  6
ByLayer
 10
0.65605603229465
 20
0.1413128048445751
 30
0.0
 11
0.3722024460714195
 21
0.1413128048445751
 31
0.0
  0
LINE
  5
15F
100
AcDbEntity
100
AcDbLine
  8
sanitarios
 62
256
370
-1
  6
ByLayer
 10
0.3722024460714195
 20
0.1413128048445751
 30
0.0
 11
0.3722024460714195
 21
0.1570824485236408
 31
0.0
  0
LINE
  5
160
100
AcDbEntity
100
AcDbLine
  8
sanitarios
 62
256
370
-1
  6
ByLayer
 10
0.3722024460714195
 20
0.1570824485236408
 30
0.0
 11
0.65605603229465
 21
0.1570824485236408
 31
0.0
  0
LINE
  5
161
100
AcDbEntity
100
AcDbLine
  8
sanitarios
 62
256
370
-1
  6
ByLayer
 10
0.65605603229465
 20
0.3791854656046461
 30
0.0
 11
0.65605603229465
 21
0.3634158219255759
 31
0.0
  0
LINE
  5
162
100
AcDbEntity
100
AcDbLine
  8
sanitarios
 62
256
370
-1
  6
ByLayer
 10
0.65605603229465
 20
0.3634158219255759
 30
0.0
 11
0.3722024460714195
 21
0.3634158219255759
 31
0.0
  0
LINE
  5
163
100
AcDbEntity
100
AcDbLine
  8
sanitarios
 62
256
370
-1
  6
ByLayer
 10
0.3722024460714195
 20
0.3634158219255759
 30
0.0
 11
0.3722024460714195
 21
0.3791854656046461
 31
0.0
  0
LINE
  5
164
100
AcDbEntity
100
AcDbLine
  8
sanitarios
 62
256
370
-1
  6
ByLayer
 10
0.3722024460714195
 20
0.3791854656046461
 30
0.0
 11
0.65605603229465
 21
0.3791854656046461
 31
0.0
  0
LINE
  5
165
100
AcDbEntity
100
AcDbLine
  8
sanitarios
 62
256
370
-1
  6
ByLayer
 10
0.65605603229465
 20
0.2131522927158831
 30
0.0
 11
0.65605603229465
 21
0.1973826490368191
 31
0.0
  0
LINE
  5
166
100
AcDbEntity
100
AcDbLine
  8
sanitarios
 62
256
370
-1
  6
ByLayer
 10
0.65605603229465
 20
0.1973826490368191
 30
0.0
 11
0.3722024460714195
 21
0.1973826490368191
 31
0.0
  0
LINE
  5
167
100
AcDbEntity
100
AcDbLine
  8
sanitarios
 62
256
370
-1
  6
ByLayer
 10
0.3722024460714195
 20
0.1973826490368191
 30
0.0
 11
0.3722024460714195
 21
0.2131522927158831
 31
0.0
  0
LINE
  5
168
100
AcDbEntity
100
AcDbLine
  8
sanitarios
 62
256
370
-1
  6
ByLayer
 10
0.3722024460714195
 20
0.2131522927158831
 30
0.0
 11
0.65605603229465
 21
0.2131522927158831
 31
0.0
  0
LINE
  5
169
100
AcDbEntity
100
AcDbLine
  8
sanitarios
 62
256
370
-1
  6
ByLayer
 10
0.65605603229465
 20
0.2692221369081249
 30
0.0
 11
0.65605603229465
 21
0.2534524932290609
 31
0.0
  0
LINE
  5
16A
100
AcDbEntity
100
AcDbLine
  8
sanitarios
 62
256
370
-1
  6
ByLayer
 10
0.65605603229465
 20
0.2534524932290609
 30
0.0
 11
0.3722024460714195
 21
0.2534524932290609
 31
0.0
  0
LINE
  5
16B
100
AcDbEntity
100
AcDbLine
  8
sanitarios
 62
256
370
-1
  6
ByLayer
 10
0.3722024460714195
 20
0.2534524932290609
 30
0.0
 11
0.3722024460714195
 21
0.2692221369081249
 31
0.0
  0
LINE
  5
16C
100
AcDbEntity
100
AcDbLine
  8
sanitarios
 62
256
370
-1
  6
ByLayer
 10
0.3722024460714195
 20
0.2692221369081249
 30
0.0
 11
0.65605603229465
 21
0.2692221369081249
 31
0.0
  0
LINE
  5
16D
100
AcDbEntity
100
AcDbLine
  8
sanitarios
 62
256
370
-1
  6
ByLayer
 10
0.65605603229465
 20
0.3252919811003721
 30
0.0
 11
0.65605603229465
 21
0.3095223374213019
 31
0.0
  0
LINE
  5
16E
100
AcDbEntity
100
AcDbLine
  8
sanitarios
 62
256
370
-1
  6
ByLayer
 10
0.65605603229465
 20
0.3095223374213019
 30
0.0
 11
0.3722024460714195
 21
0.3095223374213019
 31
0.0
  0
LINE
  5
16F
100
AcDbEntity
100
AcDbLine
  8
sanitarios
 62
256
370
-1
  6
ByLayer
 10
0.3722024460714195
 20
0.3095223374213019
 30
0.0
 11
0.3722024460714195
 21
0.3252919811003721
 31
0.0
  0
LINE
  5
170
100
AcDbEntity
100
AcDbLine
  8
sanitarios
 62
256
370
-1
  6
ByLayer
 10
0.3722024460714195
 20
0.3252919811003721
 30
0.0
 11
0.65605603229465
 21
0.3252919811003721
 31
0.0
  0
LINE
  5
171
100
AcDbEntity
100
AcDbLine
  8
sanitarios
 62
256
370
-1
  6
ByLayer
 10
0.2078674348856069
 20
0.0105353456392958
 30
0.0
 11
0.2078674348856069
 21
0.1584644217003559
 31
0.0
  0
LINE
  5
172
100
AcDbEntity
100
AcDbLine
  8
sanitarios
 62
256
370
-1
  6
ByLayer
 10
0.2078674348856069
 20
0.1584644217003559
 30
0.0
 11
0.2295155923579575
 21
0.1584644217003559
 31
0.0
  0
LINE
  5
173
100
AcDbEntity
100
AcDbLine
  8
sanitarios
 62
256
370
-1
  6
ByLayer
 10
0.2295155923579575
 20
0.1584644217003559
 30
0.0
 11
0.2295155923579575
 21
0.0105353456392958
 31
0.0
  0
LINE
  5
174
100
AcDbEntity
100
AcDbLine
  8
sanitarios
 62
256
370
-1
  6
ByLayer
 10
0.2295155923579575
 20
0.0105353456392958
 30
0.0
 11
0.2078674348856069
 21
0.0105353456392958
 31
0.0
  0
LINE
  5
175
100
AcDbEntity
100
AcDbLine
  8
sanitarios
 62
256
370
-1
  6
ByLayer
 10
0.2078674348856069
 20
0.0235714295667879
 30
0.0
 11
0.081830524554066
 21
0.0235714295667879
 31
0.0
  0
ARC
  5
176
100
AcDbEntity
  8
sanitarios
 62
256
370
-1
  6
ByLayer
100
AcDbCircle
 10
0.0818305245540632
 20
0.0657504129781375
 30
0.0
 40
0.0421789834113496
100
AcDbArc
 50
180.0
 51
270.00000000000375
  0
LINE
  5
177
100
AcDbEntity
100
AcDbLine
  8
sanitarios
 62
256
370
-1
  6
ByLayer
 10
0.0396515411427136
 20
0.0657504129781374
 30
0.0
 11
0.0396515411427139
 21
0.3561926692488848
 31
0.0
  0
ARC
  5
178
100
AcDbEntity
  8
sanitarios
 62
256
370
-1
  6
ByLayer
100
AcDbCircle
 10
0.0818305245540612
 20
0.3561926692488835
 30
0.0
 40
0.0421789834113473
100
AcDbArc
 50
89.999999999993449
 51
180.0
  0
LINE
  5
179
100
AcDbEntity
100
AcDbLine
  8
sanitarios
 62
256
370
-1
  6
ByLayer
 10
0.081830524554066
 20
0.3983716526602308
 30
0.0
 11
0.6323417946902463
 21
0.3983716526602281
 31
0.0
  0
ARC
  5
17A
100
AcDbEntity
  8
sanitarios
 62
256
370
-1
  6
ByLayer
100
AcDbCircle
 10
0.6323417946902464
 20
0.3561926692488816
 30
0.0
 40
0.0421789834113465
100
AcDbArc
 50
0.0
 51
90.000000000000156
  0
LINE
  5
17B
100
AcDbEntity
100
AcDbLine
  8
sanitarios
 62
256
370
-1
  6
ByLayer
 10
0.6745207781015929
 20
0.3561926692488817
 30
0.0
 11
0.6745207781015914
 21
0.0657504129781308
 31
0.0
  0
ARC
  5
17C
100
AcDbEntity
  8
sanitarios
 62
256
370
-1
  6
ByLayer
100
AcDbCircle
 10
0.6323417946902459
 20
0.0657504129781303
 30
0.0
 40
0.0421789834113455
100
AcDbArc
 50
270.00000000000063
 51
0.0
  0
LINE
  5
17D
100
AcDbEntity
100
AcDbLine
  8
sanitarios
 62
256
370
-1
  6
ByLayer
 10
0.6323417946902463
 20
0.0235714295667848
 30
0.0
 11
0.3570861596221491
 21
0.0235714295667879
 31
0.0
  0
ENDBLK
  5
17E
100
AcDbEntity
  8
0
100
AcDbBlockEnd
  0
BLOCK
  5
17F
100
AcDbEntity
  8
0
100
AcDbBlockBegin
  2
Bañera
 70
0
 10
0.0
 20
0.0
 30
0.0
  3
Bañera
  1

  0
LINE
  5
180
100
AcDbEntity
100
AcDbLine
  8
sanitarios
 62
256
370
-1
  6
CONTINUOUS
 10
0.0703515141130389
 20
-0.606182094083592
 30
0.0
 11
0.0703515141130389
 21
-0.0686816404979176
 31
0.0
  0
LINE
  5
181
100
AcDbEntity
100
AcDbLine
  8
sanitarios
 62
256
370
-1
  6
CONTINUOUS
 10
1.5461300559303623
 20
-0.606182094083592
 30
0.0
 11
1.5461300559303623
 21
-0.0686816404979176
 31
0.0
  0
LINE
  5
182
100
AcDbEntity
100
AcDbLine
  8
sanitarios
 62
256
370
-1
  6
CONTINUOUS
 10
1.5461300559303623
 20
-0.606182094083592
 30
0.0
 11
0.0703515141130389
 21
-0.606182094083592
 31
0.0
  0
LINE
  5
183
100
AcDbEntity
100
AcDbLine
  8
sanitarios
 62
256
370
-1
  6
CONTINUOUS
 10
0.0703515141130389
 20
-0.0686816404979176
 30
0.0
 11
1.5461300559303623
 21
-0.0686816404979176
 31
0.0
  0
ARC
  5
184
100
AcDbEntity
  8
sanitarios
 62
256
370
-1
  6
ByLayer
100
AcDbCircle
 10
1.567159336453761
 20
-0.0599999999999996
 30
0.0
 40
0.06
100
AcDbArc
 50
0.0
 51
90.0
  0
LINE
  5
185
100
AcDbEntity
100
AcDbLine
  8
sanitarios
 62
256
370
-1
  6
CONTINUOUS
 10
1.6271593364537615
 20
-0.0599999999999996
 30
0.0
 11
1.6271593364537615
 21
-0.61486373458151
 31
0.0
  0
ARC
  5
186
100
AcDbEntity
  8
sanitarios
 62
256
370
-1
  6
ByLayer
100
AcDbCircle
 10
1.567159336453761
 20
-0.61486373458151
 30
0.0
 40
0.06
100
AcDbArc
 50
270.0
 51
0.0
  0
LINE
  5
187
100
AcDbEntity
100
AcDbLine
  8
sanitarios
 62
256
370
-1
  6
CONTINUOUS
 10
0.0
 20
0.0
 30
0.0
 11
1.567159336453761
 21
0.0
 31
0.0
  0
ARC
  5
188
100
AcDbEntity
  8
sanitarios
 62
256
370
-1
  6
ByLayer
100
AcDbCircle
 10
0.0
 20
-0.0599999999999996
 30
0.0
 40
0.06
100
AcDbArc
 50
90.0
 51
180.0
  0
LINE
  5
189
100
AcDbEntity
100
AcDbLine
  8
sanitarios
 62
256
370
-1
  6
CONTINUOUS
 10
-0.0600000000000005
 20
-0.61486373458151
 30
0.0
 11
-0.0600000000000005
 21
-0.0599999999999996
 31
0.0
  0
LINE
  5
18A
100
AcDbEntity
100
AcDbLine
  8
sanitarios
 62
256
370
-1
  6
CONTINUOUS
 10
1.567159336453761
 20
-0.6748637345815096
 30
0.0
 11
0.0
 21
-0.6748637345815096
 31
0.0
  0
ARC
  5
18B
100
AcDbEntity
  8
sanitarios
 62
256
370
-1
  6
ByLayer
100
AcDbCircle
 10
0.0
 20
-0.61486373458151
 30
0.0
 40
0.06
100
AcDbArc
 50
180.0
 51
270.0
  0
CIRCLE
  5
18C
100
AcDbEntity
100
AcDbCircle
  8
sanitarios
 62
256
370
-1
  6
ByLayer
 10
0.152569077577045
 20
-0.3374318672907553
 30
0.0
 40
0.01
  0
CIRCLE
  5
18D
100
AcDbEntity
100
AcDbCircle
  8
sanitarios
 62
256
370
-1
  6
ByLayer
 10
0.152569077577045
 20
-0.3374318672907553
 30
0.0
 40
0.02
  0
LINE
  5
18E
100
AcDbEntity
100
AcDbLine
  8
sanitarios
 62
256
370
-1
  6
ByLayer
 10
-0.0600000000000005
 20
-0.61486373458151
 30
0.0
 11
-0.0600000000000005
 21
-0.0599999999999996
 31
0.0
  0
ENDBLK
  5
18F
100
AcDbEntity
  8
0
100
AcDbBlockEnd
  0
BLOCK
  5
190
100
AcDbEntity
  8
0
100
AcDbBlockBegin
  2
Cama matrimonio
 70
0
 10
0.0
 20
0.0
 30
0.0
  3
Cama matrimonio
  1

  0
LINE
  5
191
100
AcDbEntity
100
AcDbLine
  8
muebles-bloques
 62
256
370
-1
  6
CONTINUOUS
 10
1.602801369631079
 20
0.0
 30
0.0
 11
1.602801369631079
 21
-1.1810115355176372
 31
0.0
  0
LWPOLYLINE
  5
192
  8
muebles-bloques
 62
256
370
-1
  6
CONTINUOUS
100
AcDbEntity
100
AcDbPolyline
 90
4
 70
0
 10
0.1975933968061803
 20
0.0
 30
0.0
 10
0.5789390674478803
 20
-1.1810115355176327
 30
0.0
 10
0.8481242467243799
 20
-1.0049573150036339
 30
0.0
 10
0.1975933968061803
 20
0.0
 30
0.0
  0
LINE
  5
193
100
AcDbEntity
100
AcDbLine
  8
muebles-bloques
 62
256
370
-1
  6
CONTINUOUS
 10
0.1975933968061803
 20
-1.1810115355176327
 30
0.0
 11
0.1975933968061803
 21
0.0
 31
0.0
  0
LINE
  5
194
100
AcDbEntity
100
AcDbLine
  8
muebles-bloques
 62
256
370
-1
  6
CONTINUOUS
 10
0.0
 20
-1.1810115355176327
 30
0.0
 11
0.0
 21
0.0
 31
0.0
  0
LINE
  5
195
100
AcDbEntity
100
AcDbLine
  8
muebles-bloques
 62
256
370
-1
  6
CONTINUOUS
 10
1.602801369631079
 20
-1.1810115355176372
 30
0.0
 11
0.0
 21
-1.1810115355176327
 31
0.0
  0
LINE
  5
196
100
AcDbEntity
100
AcDbLine
  8
muebles-bloques
 62
256
370
-1
  6
CONTINUOUS
 10
0.0
 20
0.0
 30
0.0
 11
1.602801369631079
 21
0.0
 31
0.0
  0
ENDBLK
  5
197
100
AcDbEntity
  8
0
100
AcDbBlockEnd
  0
BLOCK
  5
198
100
AcDbEntity
  8
0
100
AcDbBlockBegin
  2
Televisor
 70
0
 10
0.0
 20
0.0
 30
0.0
  3
Televisor
  1

  0
LINE
  5
199
100
AcDbEntity
100
AcDbLine
  8
muebles-bloques
 62
256
370
-1
  6
ByLayer
 10
0.4499999999999993
 20
-0.1089510195111112
 30
0.0
 11
-0.4499999999999993
 21
-0.1089510195111112
 31
0.0
  0
ARC
  5
19A
100
AcDbEntity
  8
muebles-bloques
 62
256
370
-1
  6
ByLayer
100
AcDbCircle
 10
0.0
 20
-0.1089510195111112
 30
0.0
 40
0.1089510195111112
100
AcDbArc
 50
213.41547351523272
 51
326.58452648476737
  0
LINE
  5
19B
100
AcDbEntity
100
AcDbLine
  8
muebles-bloques
 62
256
370
-1
  6
ByLayer
 10
-0.4499999999999993
 20
-0.1689510195111108
 30
0.0
 11
-0.4499999999999993
 21
-0.1089510195111112
 31
0.0
  0
LINE
  5
19C
100
AcDbEntity
100
AcDbLine
  8
muebles-bloques
 62
256
370
-1
  6
ByLayer
 10
-0.4499999999999993
 20
-0.1089510195111112
 30
0.0
 11
-0.3500000000000014
 21
-0.0889510195111112
 31
0.0
  0
LINE
  5
19D
100
AcDbEntity
100
AcDbLine
  8
muebles-bloques
 62
256
370
-1
  6
ByLayer
 10
0.4499999999999993
 20
-0.1689510195111112
 30
0.0
 11
0.4499999999999993
 21
-0.1089510195111112
 31
0.0
  0
LINE
  5
19E
100
AcDbEntity
100
AcDbLine
  8
muebles-bloques
 62
256
370
-1
  6
ByLayer
 10
0.3500000000000014
 20
-0.0889510195111112
 30
0.0
 11
-0.3500000000000014
 21
-0.0889510195111112
 31
0.0
  0
LINE
  5
19F
100
AcDbEntity
100
AcDbLine
  8
muebles-bloques
 62
256
370
-1
  6
ByLayer
 10
0.4499999999999993
 20
-0.1089510195111112
 30
0.0
 11
0.3500000000000014
 21
-0.0889510195111112
 31
0.0
  0
ARC
  5
1A0
100
AcDbEntity
  8
muebles-bloques
 62
256
370
-1
  6
ByLayer
100
AcDbCircle
 10
0.0
 20
-0.1089510195111112
 30
0.0
 40
0.1089510195111112
100
AcDbArc
 50
10.577697518308369
 51
169.42230248169164
  0
LINE
  5
1A1
100
AcDbEntity
100
AcDbLine
  8
muebles-bloques
 62
256
370
-1
  6
ByLayer
 10
0.4499999999999993
 20
-0.1689510195111112
 30
0.0
 11
-0.4499999999999993
 21
-0.1689510195111108
 31
0.0
  0
ENDBLK
  5
1A2
100
AcDbEntity
  8
0
100
AcDbBlockEnd
  0
ENDSEC
  0
SECTION
  2
ENTITIES
  0
LINE
  5
1A3
100
AcDbEntity
100
AcDbLine
  8
sanitarios
 62
256
370
-1
  6
CONTINUOUS
 10
10.03373665919778
 20
5.1957785084059651
 30
0.0
 11
10.11966680527461
 21
5.1957785084059651
 31
0.0
  0
LINE
  5
1A4
100
AcDbEntity
100
AcDbLine
  8
sanitarios
 62
256
370
-1
  6
CONTINUOUS
 10
10.20877621387279
 20
5.1583488527829777
 30
0.0
 11
10.20877621387279
 21
4.9896329191375939
 31
0.0
  0
LINE
  5
1A5
100
AcDbEntity
100
AcDbLine
  8
sanitarios
 62
256
370
-1
  6
CONTINUOUS
 10
9.8586971045227703
 20
5.1583488527829777
 30
0.0
 11
9.8586971045227703
 21
4.9896329191375939
 31
0.0
  0
LINE
  5
1A6
100
AcDbEntity
100
AcDbLine
  8
sanitarios
 62
256
370
-1
  6
CONTINUOUS
 10
9.8586971045227703
 20
4.9896329191375939
 30
0.0
 11
10.20877621387279
 21
4.9896329191375939
 31
0.0
  0
LINE
  5
1A7
100
AcDbEntity
100
AcDbLine
  8
sanitarios
 62
256
370
-1
  6
CONTINUOUS
 10
10.11809462602047
 20
5.1583488527829777
 30
0.0
 11
10.20877621387279
 21
5.1583488527829777
 31
0.0
  0
LINE
  5
1A8
100
AcDbEntity
100
AcDbLine
  8
sanitarios
 62
256
370
-1
  6
CONTINUOUS
 10
9.8586971045227703
 20
5.1583488527829777
 30
0.0
 11
9.9493786923750918
 21
5.1583488527829777
 31
0.0
  0
LINE
  5
1A9
100
AcDbEntity
100
AcDbLine
  8
sanitarios
 62
256
370
-1
  6
CONTINUOUS
 10
9.9493786923750918
 20
5.1583488527829777
 30
0.0
 11
10.11809462602047
 21
5.1583488527829777
 31
0.0
  0
LINE
  5
1AA
100
AcDbEntity
100
AcDbLine
  8
sanitarios
 62
256
370
-1
  6
CONTINUOUS
 10
10.16343541994663
 20
5.1957785084059651
 30
0.0
 11
10.16343541994663
 21
5.1583488527829777
 31
0.0
  0
LINE
  5
1AB
100
AcDbEntity
100
AcDbLine
  8
sanitarios
 62
256
370
-1
  6
CONTINUOUS
 10
9.9040378984489301
 20
5.1957785084059651
 30
0.0
 11
9.9040378984489301
 21
5.1583488527829777
 31
0.0
  0
LINE
  5
1AC
100
AcDbEntity
100
AcDbLine
  8
sanitarios
 62
256
370
-1
  6
CONTINUOUS
 10
9.9478065131209483
 20
5.1957785084059651
 30
0.0
 11
10.16343541994663
 21
5.1957785084059616
 31
0.0
  0
LINE
  5
1AD
100
AcDbEntity
100
AcDbLine
  8
sanitarios
 62
256
370
-1
  6
CONTINUOUS
 10
10.11809462602047
 20
5.1957785084059651
 30
0.0
 11
9.9040378984489301
 21
5.1957785084059616
 31
0.0
  0
LINE
  5
1AE
100
AcDbEntity
100
AcDbLine
  8
sanitarios
 62
256
370
-1
  6
CONTINUOUS
 10
10.11809462602047
 20
4.95220326351461
 30
0.0
 11
9.9040378984489301
 21
4.9522032635146127
 31
0.0
  0
LINE
  5
1AF
100
AcDbEntity
100
AcDbLine
  8
sanitarios
 62
256
370
-1
  6
CONTINUOUS
 10
9.9478065131209483
 20
4.95220326351461
 30
0.0
 11
10.16343541994663
 21
4.9522032635146127
 31
0.0
  0
LINE
  5
1B0
100
AcDbEntity
100
AcDbLine
  8
sanitarios
 62
256
370
-1
  6
CONTINUOUS
 10
10.03373665919778
 20
4.95220326351461
 30
0.0
 11
10.11966680527461
 21
4.95220326351461
 31
0.0
  0
LINE
  5
1B1
100
AcDbEntity
100
AcDbLine
  8
sanitarios
 62
256
370
-1
  6
CONTINUOUS
 10
10.16343541994663
 20
4.95220326351461
 30
0.0
 11
10.16343541994663
 21
4.9896329191375939
 31
0.0
  0
LINE
  5
1B2
100
AcDbEntity
100
AcDbLine
  8
sanitarios
 62
256
370
-1
  6
CONTINUOUS
 10
9.9040378984489301
 20
4.95220326351461
 30
0.0
 11
9.9040378984489301
 21
4.9896329191375939
 31
0.0
  0
LWPOLYLINE
  5
1B3
  8
sanitarios
 62
256
370
-1
  6
CONTINUOUS
100
AcDbEntity
100
AcDbPolyline
 90
2
 70
0
 10
10.16343541994663
 20
5.1957785084059651
 30
0.0
 42
0.1413605054568468
 10
10.143715586263889
 20
5.6730039938871499
 30
0.0
 42
0.1413605054568468
  0
LWPOLYLINE
  5
1B4
  8
sanitarios
 62
256
370
-1
  6
CONTINUOUS
100
AcDbEntity
100
AcDbPolyline
 90
2
 70
0
 10
10.143715586263854
 20
5.6730039938871286
 30
0.0
 42
0.6564228966725694
 10
9.9237577321317385
 20
5.6730039938871153
 30
0.0
 42
0.6564228966725694
  0
LWPOLYLINE
  5
1B5
  8
sanitarios
 62
256
370
-1
  6
CONTINUOUS
100
AcDbEntity
100
AcDbPolyline
 90
2
 70
0
 10
9.923757732131703
 20
5.6730039938871339
 30
0.0
 42
0.1413605054567929
 10
9.9040378984489443
 20
5.1957785084059616
 30
0.0
 42
0.1413605054567929
  0
LWPOLYLINE
  5
1B6
  8
sanitarios
 62
256
370
-1
  6
CONTINUOUS
100
AcDbEntity
100
AcDbPolyline
 90
129
 70
0
 10
10.0337
 20
5.6503300000000003
 30
0.0
 10
10.028600000000001
 20
5.6500899999999996
 30
0.0
 10
10.0235
 20
5.6493700000000002
 30
0.0
 10
10.0184
 20
5.64818
 30
0.0
 10
10.013299999999999
 20
5.6465100000000001
 30
0.0
 10
10.0083
 20
5.64438
 30
0.0
 10
10.003399999999999
 20
5.6417799999999998
 30
0.0
 10
9.9984900000000003
 20
5.6387200000000002
 30
0.0
 10
9.9937000000000005
 20
5.6352099999999998
 30
0.0
 10
9.9890000000000008
 20
5.6312699999999998
 30
0.0
 10
9.9844100000000005
 20
5.6268799999999999
 30
0.0
 10
9.9799500000000005
 20
5.6220800000000004
 30
0.0
 10
9.9756099999999996
 20
5.6168699999999996
 30
0.0
 10
9.9714100000000006
 20
5.6112500000000001
 30
0.0
 10
9.9673599999999993
 20
5.6052600000000004
 30
0.0
 10
9.9634699999999992
 20
5.5988899999999999
 30
0.0
 10
9.9597499999999997
 20
5.5921700000000003
 30
0.0
 10
9.9562100000000004
 20
5.5851100000000002
 30
0.0
 10
9.9528599999999994
 20
5.5777400000000004
 30
0.0
 10
9.9497
 20
5.5700500000000002
 30
0.0
 10
9.9467400000000001
 20
5.5620799999999999
 30
0.0
 10
9.9439899999999994
 20
5.5538499999999997
 30
0.0
 10
9.9414599999999993
 20
5.5453700000000001
 30
0.0
 10
9.9391499999999997
 20
5.53667
 30
0.0
 10
9.9370700000000003
 20
5.5277599999999998
 30
0.0
 10
9.9352199999999993
 20
5.5186599999999997
 30
0.0
 10
9.9336099999999998
 20
5.5094099999999999
 30
0.0
 10
9.9322400000000002
 20
5.5000200000000001
 30
0.0
 10
9.9311199999999999
 20
5.4905099999999996
 30
0.0
 10
9.9302399999999995
 20
5.4809099999999997
 30
0.0
 10
9.9296100000000003
 20
5.4712300000000003
 30
0.0
 10
9.9292300000000004
 20
5.4615200000000002
 30
0.0
 10
9.9291099999999997
 20
5.4517699999999998
 30
0.0
 10
9.9292300000000004
 20
5.4420299999999999
 30
0.0
 10
9.9296100000000003
 20
5.4323100000000002
 30
0.0
 10
9.9302399999999995
 20
5.4226400000000003
 30
0.0
 10
9.9311199999999999
 20
5.4130399999999996
 30
0.0
 10
9.9322400000000002
 20
5.4035299999999999
 30
0.0
 10
9.9336099999999998
 20
5.3941400000000002
 30
0.0
 10
9.9352199999999993
 20
5.3848799999999999
 30
0.0
 10
9.9370700000000003
 20
5.3757900000000003
 30
0.0
 10
9.9391499999999997
 20
5.3668800000000001
 30
0.0
 10
9.9414599999999993
 20
5.3581700000000003
 30
0.0
 10
9.9439899999999994
 20
5.3496899999999998
 30
0.0
 10
9.9467400000000001
 20
5.3414599999999997
 30
0.0
 10
9.9497
 20
5.3334900000000003
 30
0.0
 10
9.9528599999999994
 20
5.3258099999999997
 30
0.0
 10
9.9562100000000004
 20
5.3184300000000002
 30
0.0
 10
9.9597499999999997
 20
5.3113700000000001
 30
0.0
 10
9.9634699999999992
 20
5.3046499999999996
 30
0.0
 10
9.9673599999999993
 20
5.2982899999999997
 30
0.0
 10
9.9714100000000006
 20
5.2922900000000004
 30
0.0
 10
9.9756099999999996
 20
5.2866799999999996
 30
0.0
 10
9.9799500000000005
 20
5.2814699999999997
 30
0.0
 10
9.9844100000000005
 20
5.2766599999999997
 30
0.0
 10
9.9890000000000008
 20
5.2722800000000003
 30
0.0
 10
9.9937000000000005
 20
5.2683299999999997
 30
0.0
 10
9.9984900000000003
 20
5.2648200000000003
 30
0.0
 10
10.003399999999999
 20
5.2617700000000003
 30
0.0
 10
10.0083
 20
5.2591700000000001
 30
0.0
 10
10.013299999999999
 20
5.2570300000000003
 30
0.0
 10
10.0184
 20
5.2553700000000001
 30
0.0
 10
10.0235
 20
5.2541700000000002
 30
0.0
 10
10.028600000000001
 20
5.2534599999999996
 30
0.0
 10
10.0337
 20
5.2532199999999998
 30
0.0
 10
10.0389
 20
5.2534599999999996
 30
0.0
 10
10.044
 20
5.2541700000000002
 30
0.0
 10
10.049099999999999
 20
5.2553700000000001
 30
0.0
 10
10.0541
 20
5.2570300000000003
 30
0.0
 10
10.059200000000001
 20
5.2591700000000001
 30
0.0
 10
10.0641
 20
5.2617700000000003
 30
0.0
 10
10.069000000000001
 20
5.2648200000000003
 30
0.0
 10
10.0738
 20
5.2683299999999997
 30
0.0
 10
10.0785
 20
5.2722800000000003
 30
0.0
 10
10.0831
 20
5.2766599999999997
 30
0.0
 10
10.0875
 20
5.2814699999999997
 30
0.0
 10
10.091900000000001
 20
5.2866799999999996
 30
0.0
 10
10.0961
 20
5.2922900000000004
 30
0.0
 10
10.100099999999999
 20
5.2982899999999997
 30
0.0
 10
10.103999999999999
 20
5.3046499999999996
 30
0.0
 10
10.107699999999999
 20
5.3113700000000001
 30
0.0
 10
10.1113
 20
5.3184300000000002
 30
0.0
 10
10.114599999999999
 20
5.3258099999999997
 30
0.0
 10
10.117800000000001
 20
5.3334900000000003
 30
0.0
 10
10.120699999999999
 20
5.3414599999999997
 30
0.0
 10
10.1235
 20
5.3496899999999998
 30
0.0
 10
10.125999999999999
 20
5.3581700000000003
 30
0.0
 10
10.128299999999999
 20
5.3668800000000001
 30
0.0
 10
10.1304
 20
5.3757900000000003
 30
0.0
 10
10.132300000000001
 20
5.3848799999999999
 30
0.0
 10
10.133900000000001
 20
5.3941400000000002
 30
0.0
 10
10.135199999999999
 20
5.4035299999999999
 30
0.0
 10
10.1364
 20
5.4130399999999996
 30
0.0
 10
10.1372
 20
5.4226400000000003
 30
0.0
 10
10.1379
 20
5.4323100000000002
 30
0.0
 10
10.138199999999999
 20
5.4420299999999999
 30
0.0
 10
10.138400000000001
 20
5.4517699999999998
 30
0.0
 10
10.138199999999999
 20
5.4615200000000002
 30
0.0
 10
10.1379
 20
5.4712300000000003
 30
0.0
 10
10.1372
 20
5.4809099999999997
 30
0.0
 10
10.1364
 20
5.4905099999999996
 30
0.0
 10
10.135199999999999
 20
5.5000200000000001
 30
0.0
 10
10.133900000000001
 20
5.5094099999999999
 30
0.0
 10
10.132300000000001
 20
5.5186599999999997
 30
0.0
 10
10.1304
 20
5.5277599999999998
 30
0.0
 10
10.128299999999999
 20
5.53667
 30
0.0
 10
10.125999999999999
 20
5.5453700000000001
 30
0.0
 10
10.1235
 20
5.5538499999999997
 30
0.0
 10
10.120699999999999
 20
5.5620799999999999
 30
0.0
 10
10.117800000000001
 20
5.5700500000000002
 30
0.0
 10
10.114599999999999
 20
5.5777400000000004
 30
0.0
 10
10.1113
 20
5.5851100000000002
 30
0.0
 10
10.107699999999999
 20
5.5921700000000003
 30
0.0
 10
10.103999999999999
 20
5.5988899999999999
 30
0.0
 10
10.100099999999999
 20
5.6052600000000004
 30
0.0
 10
10.0961
 20
5.6112500000000001
 30
0.0
 10
10.091900000000001
 20
5.6168699999999996
 30
0.0
 10
10.0875
 20
5.6220800000000004
 30
0.0
 10
10.0831
 20
5.6268799999999999
 30
0.0
 10
10.0785
 20
5.6312699999999998
 30
0.0
 10
10.0738
 20
5.6352099999999998
 30
0.0
 10
10.069000000000001
 20
5.6387200000000002
 30
0.0
 10
10.0641
 20
5.6417799999999998
 30
0.0
 10
10.059200000000001
 20
5.64438
 30
0.0
 10
10.0541
 20
5.6465100000000001
 30
0.0
 10
10.049099999999999
 20
5.64818
 30
0.0
 10
10.044
 20
5.6493700000000002
 30
0.0
 10
10.0389
 20
5.6500899999999996
 30
0.0
 10
10.0337
 20
5.6503300000000003
 30
0.0
  0
ARC
  5
1B7
100
AcDbEntity
  8
sanitarios
 62
256
370
-1
  6
ByLayer
100
AcDbCircle
 10
10.032747958399375
 20
5.3340505690039182
 30
0.0
 40
0.0546257208887053
100
AcDbArc
 50
319.36060832236353
 51
220.63939167763647
  0
LINE
  5
1B8
100
AcDbEntity
100
AcDbLine
  8
sanitarios
 62
256
370
-1
  6
ByLayer
 10
10.074199250653514
 20
5.2984730514805776
 30
0.0
 11
9.9912966661437643
 21
5.2984730514805776
 31
0.0
  0
LINE
  5
1B9
100
AcDbEntity
100
AcDbLine
  8
ventanas
 62
256
370
-1
  6
CONTINUOUS
 10
4.6174645856022991
 20
-0.1654374888814396
 30
0.0
 11
4.6265315718022331
 21
-0.2493067700737111
 31
0.0
  0
LINE
  5
1BA
100
AcDbEntity
100
AcDbLine
  8
ventanas
 62
256
370
-1
  6
CONTINUOUS
 10
4.7903396558410343
 20
-1.1345723612938861
 30
0.0
 11
4.723023108667217
 21
-1.1418498554559371
 31
0.0
  0
LINE
  5
1BB
100
AcDbEntity
100
AcDbLine
  8
ventanas
 62
256
370
-1
  6
CONTINUOUS
 10
4.5668004829177189
 20
0.3032035546485501
 30
0.0
 11
4.6341170300915362
 21
0.3104810488105953
 31
0.0
  0
LINE
  5
1BC
100
AcDbEntity
100
AcDbLine
  8
ventanas
 62
256
370
-1
  6
CONTINUOUS
 10
4.7294588679144134
 20
-1.201380386338722
 30
0.0
 11
4.5598505919179058
 21
0.3674897848981385
 31
0.0
  0
LINE
  5
1BD
100
AcDbEntity
100
AcDbLine
  8
ventanas
 62
256
370
-1
  6
CONTINUOUS
 10
4.6004587565046311
 20
0.3068423017295698
 30
0.0
 11
4.7566813822541292
 21
-1.138211108374912
 31
0.0
  0
LINE
  5
1BE
100
AcDbEntity
100
AcDbLine
  8
ventanas
 62
256
370
-1
  6
CONTINUOUS
 10
4.7967754150882342
 20
-1.1941028921766741
 30
0.0
 11
4.6271671390917284
 21
0.3747672790601865
 31
0.0
  0
LWPOLYLINE
  5
1BF
  8
ventanas
 62
256
370
-1
  6
CONTINUOUS
100
AcDbEntity
100
AcDbPolyline
 90
4
 70
1
 10
4.7119712770899751
 20
-0.4096678065582453
 30
0.0
 10
4.6446547299161649
 20
-0.4169453007202934
 30
0.0
 10
4.6537217161160944
 20
-0.5008145819125618
 30
0.0
 10
4.7210382632899091
 20
-0.4935370877505138
 30
0.0
  0
LINE
  5
1C0
100
AcDbEntity
100
AcDbLine
  8
ventanas
 62
256
370
-1
  6
CONTINUOUS
 10
4.5871022121075562
 20
-1.216770357676501
 30
0.0
 11
4.7967754150882342
 21
-1.1941028921766741
 31
0.0
  0
LINE
  5
1C1
100
AcDbEntity
100
AcDbLine
  8
ventanas
 62
256
370
-1
  6
CONTINUOUS
 10
4.4174939361110503
 20
0.3520998135603646
 30
0.0
 11
4.6271671390917284
 21
0.3747672790601865
 31
0.0
  0
LINE
  5
1C2
100
AcDbEntity
100
AcDbLine
  8
ventanas
 62
256
370
-1
  6
CONTINUOUS
 10
4.3459726732106887
 20
2.3458627007409421
 30
0.0
 11
4.3550396594106227
 21
2.2619934195486739
 31
0.0
  0
LINE
  5
1C3
100
AcDbEntity
100
AcDbLine
  8
ventanas
 62
256
370
-1
  6
CONTINUOUS
 10
4.5188477434494292
 20
1.3767278283284961
 30
0.0
 11
4.4515311962756083
 21
1.3694503341664479
 31
0.0
  0
LINE
  5
1C4
100
AcDbEntity
100
AcDbLine
  8
ventanas
 62
256
370
-1
  6
CONTINUOUS
 10
4.2953085705261103
 20
2.8145037442709322
 30
0.0
 11
4.3626251176999249
 21
2.821781238432977
 31
0.0
  0
LINE
  5
1C5
100
AcDbEntity
100
AcDbLine
  8
ventanas
 62
256
370
-1
  6
CONTINUOUS
 10
4.4579669555228021
 20
1.3099198032836601
 30
0.0
 11
4.2883586795262971
 21
2.8787899745205201
 31
0.0
  0
LINE
  5
1C6
100
AcDbEntity
100
AcDbLine
  8
ventanas
 62
256
370
-1
  6
CONTINUOUS
 10
4.3289668441130198
 20
2.8181424913519542
 30
0.0
 11
4.4851894698625179
 21
1.373089081247473
 31
0.0
  0
LINE
  5
1C7
100
AcDbEntity
100
AcDbLine
  8
ventanas
 62
256
370
-1
  6
CONTINUOUS
 10
4.5252835026966238
 20
1.317197297445708
 30
0.0
 11
4.3556752267001171
 21
2.886067468682572
 31
0.0
  0
LWPOLYLINE
  5
1C8
  8
ventanas
 62
256
370
-1
  6
CONTINUOUS
100
AcDbEntity
100
AcDbPolyline
 90
4
 70
1
 10
4.4404793646983647
 20
2.1016323830641399
 30
0.0
 10
4.3731628175245554
 20
2.0943548889020911
 30
0.0
 10
4.382229803724484
 20
2.0104856077098199
 30
0.0
 10
4.4495463508983004
 20
2.0177631018718678
 30
0.0
  0
LINE
  5
1C9
100
AcDbEntity
100
AcDbLine
  8
ventanas
 62
256
370
-1
  6
CONTINUOUS
 10
4.3156102997159449
 20
1.2945298319458829
 30
0.0
 11
4.5252835026966238
 21
1.317197297445708
 31
0.0
  0
LINE
  5
1CA
100
AcDbEntity
100
AcDbLine
  8
ventanas
 62
256
370
-1
  6
CONTINUOUS
 10
4.146002023719439
 20
2.86340000318275
 30
0.0
 11
4.3556752267001171
 21
2.886067468682572
 31
0.0
  0
LINE
  5
1CB
100
AcDbEntity
100
AcDbLine
  8
ventanas
 62
256
370
-1
  6
CONTINUOUS
 10
3.1409940111160162
 20
4.173708725177506
 30
0.0
 11
3.1409940111160162
 21
5.7517203162259598
 31
0.0
  0
LINE
  5
1CC
100
AcDbEntity
100
AcDbLine
  8
ventanas
 62
256
370
-1
  6
CONTINUOUS
 10
3.1748484031674291
 20
5.6870595059571993
 30
0.0
 11
3.1748484031674291
 21
4.2335861257913781
 31
0.0
  0
LINE
  5
1CD
100
AcDbEntity
100
AcDbLine
  8
ventanas
 62
256
370
-1
  6
CONTINUOUS
 10
3.2087027952188412
 20
4.173708725177506
 30
0.0
 11
3.2087027952188412
 21
5.7517203162259634
 31
0.0
  0
LINE
  5
1CE
100
AcDbEntity
100
AcDbLine
  8
ventanas
 62
256
370
-1
  6
CONTINUOUS
 10
3.2087027952188412
 20
4.2335861257913781
 30
0.0
 11
3.1409940111160162
 21
4.2335861257913781
 31
0.0
  0
LINE
  5
1CF
100
AcDbEntity
100
AcDbLine
  8
ventanas
 62
256
370
-1
  6
CONTINUOUS
 10
2.997807878162118
 20
4.173708725177506
 30
0.0
 11
3.2087027952188412
 21
4.173708725177506
 31
0.0
  0
LINE
  5
1D0
100
AcDbEntity
100
AcDbLine
  8
ventanas
 62
256
370
-1
  6
CONTINUOUS
 10
3.1409940111160162
 20
5.2156878065715588
 30
0.0
 11
3.1409940111160162
 21
5.1313298397488696
 31
0.0
  0
LWPOLYLINE
  5
1D1
  8
ventanas
 62
256
370
-1
  6
CONTINUOUS
100
AcDbEntity
100
AcDbPolyline
 90
4
 70
1
 10
3.2087027952188412
 20
4.9627145207017307
 30
0.0
 10
3.1409940111160162
 20
4.9627145207017307
 30
0.0
 10
3.1409940111160162
 20
4.878356553879045
 30
0.0
 10
3.2087027952188412
 20
4.878356553879045
 30
0.0
  0
LINE
  5
1D2
100
AcDbEntity
100
AcDbLine
  8
ventanas
 62
256
370
-1
  6
CONTINUOUS
 10
3.1409940111160162
 20
5.6870595059572038
 30
0.0
 11
3.2087027952188412
 21
5.6870595059571993
 31
0.0
  0
LINE
  5
1D3
100
AcDbEntity
100
AcDbLine
  8
ventanas
 62
256
370
-1
  6
CONTINUOUS
 10
2.997807878162118
 20
5.751720316225966
 30
0.0
 11
3.2087027952188412
 21
5.7517203162259598
 31
0.0
  0
LINE
  5
1D4
100
AcDbEntity
100
AcDbLine
  8
ventanas
 62
256
370
-1
  6
CONTINUOUS
 10
16.01057603774419
 20
4.8737022351035089
 30
0.0
 11
16.01057603774419
 21
4.7893442682808214
 31
0.0
  0
LINE
  5
1D5
100
AcDbEntity
100
AcDbLine
  8
ventanas
 62
256
370
-1
  6
CONTINUOUS
 10
15.942867253641371
 20
4.0784181903530072
 30
0.0
 11
16.01057603774419
 21
4.0784181903530072
 31
0.0
  0
LINE
  5
1D6
100
AcDbEntity
100
AcDbLine
  8
ventanas
 62
256
370
-1
  6
CONTINUOUS
 10
16.153762170698101
 20
4.0185407897391316
 30
0.0
 11
15.942867253641371
 21
4.0185407897391316
 31
0.0
  0
LINE
  5
1D7
100
AcDbEntity
100
AcDbLine
  8
ventanas
 62
256
370
-1
  6
CONTINUOUS
 10
15.942867253641371
 20
5.4097347447579143
 30
0.0
 11
16.153762170698101
 21
5.409734744757916
 31
0.0
  0
LINE
  5
1D8
100
AcDbEntity
100
AcDbLine
  8
ventanas
 62
256
370
-1
  6
CONTINUOUS
 10
15.976721645692789
 20
5.345073934489152
 30
0.0
 11
15.9767216456928
 21
4.0784181903530072
 31
0.0
  0
LINE
  5
1D9
100
AcDbEntity
100
AcDbLine
  8
ventanas
 62
256
370
-1
  6
CONTINUOUS
 10
16.01057603774419
 20
4.0185407897391316
 30
0.0
 11
16.01057603774419
 21
5.4097347447579143
 31
0.0
  0
LINE
  5
1DA
100
AcDbEntity
100
AcDbLine
  8
ventanas
 62
256
370
-1
  6
CONTINUOUS
 10
16.01057603774419
 20
5.3450739344891547
 30
0.0
 11
15.942867253641371
 21
5.345073934489152
 31
0.0
  0
LINE
  5
1DB
100
AcDbEntity
100
AcDbLine
  8
ventanas
 62
256
370
-1
  6
CONTINUOUS
 10
15.942867253641371
 20
4.0185407897391316
 30
0.0
 11
15.942867253641371
 21
5.4097347447579143
 31
0.0
  0
LINE
  5
1DC
100
AcDbEntity
100
AcDbLine
  8
ventanas
 62
256
370
-1
  6
CONTINUOUS
 10
15.942867253641371
 20
4.7563167506598703
 30
0.0
 11
16.01057603774419
 21
4.7563167506598703
 31
0.0
  0
LINE
  5
1DD
100
AcDbEntity
100
AcDbLine
  8
ventanas
 62
256
370
-1
  6
CONTINUOUS
 10
15.942867253641371
 20
4.6719587838371783
 30
0.0
 11
16.01057603774419
 21
4.6719587838371783
 31
0.0
  0
LINE
  5
1DE
100
AcDbEntity
100
AcDbLine
  8
ventanas
 62
256
370
-1
  6
CONTINUOUS
 10
15.942867253641371
 20
5.4097347447579143
 30
0.0
 11
15.942867253641371
 21
5.5758610545981764
 31
0.0
  0
LINE
  5
1DF
100
AcDbEntity
100
AcDbLine
  8
ventanas
 62
256
370
-1
  6
CONTINUOUS
 10
16.00668029561524
 20
5.4097347447579143
 30
0.0
 11
16.00668029561524
 21
5.6088678004467258
 31
0.0
  0
LINE
  5
1E0
100
AcDbEntity
100
AcDbLine
  8
ventanas
 62
256
370
-1
  6
CONTINUOUS
 10
19.104945640806189
 20
0.8408251911731184
 30
0.0
 11
18.364660675127979
 21
3.603606295163567
 31
0.0
  0
LINE
  5
1E1
100
AcDbEntity
100
AcDbLine
  8
ventanas
 62
256
370
-1
  6
CONTINUOUS
 10
18.41409695591307
 20
3.549910909999463
 30
0.0
 11
19.122149060771861
 21
0.9074244802603912
 31
0.0
  0
LINE
  5
1E2
100
AcDbEntity
100
AcDbLine
  8
ventanas
 62
256
370
-1
  6
CONTINUOUS
 10
19.170347304037751
 20
0.858349514019668
 30
0.0
 11
18.430062338359541
 21
3.621130618010111
 31
0.0
  0
LINE
  5
1E3
100
AcDbEntity
100
AcDbLine
  8
ventanas
 62
256
370
-1
  6
CONTINUOUS
 10
19.30865448782437
 20
0.8954088122227153
 30
0.0
 11
19.104945640806189
 21
0.8408251911731184
 31
0.0
  0
LINE
  5
1E4
100
AcDbEntity
100
AcDbLine
  8
ventanas
 62
256
370
-1
  6
CONTINUOUS
 10
19.089448229156091
 20
0.8986623188371194
 30
0.0
 11
19.154849892387642
 21
0.916186641683663
 31
0.0
  0
LINE
  5
1E5
100
AcDbEntity
100
AcDbLine
  8
ventanas
 62
256
370
-1
  6
CONTINUOUS
 10
18.90066327317453
 20
1.864824019191142
 30
0.0
 11
18.922496721594371
 21
1.7833404803838691
 31
0.0
  0
LINE
  5
1E6
100
AcDbEntity
100
AcDbLine
  8
ventanas
 62
256
370
-1
  6
CONTINUOUS
 10
18.446797787528851
 20
3.5586730714227408
 30
0.0
 11
18.3813961242973
 21
3.541148748576191
 31
0.0
  0
LINE
  5
1E7
100
AcDbEntity
100
AcDbLine
  8
ventanas
 62
256
370
-1
  6
CONTINUOUS
 10
18.56836952214617
 20
3.6581899162131641
 30
0.0
 11
18.364660675127979
 21
3.6036062951635639
 31
0.0
  0
LWPOLYLINE
  5
1E8
  8
ventanas
 62
256
370
-1
  6
CONTINUOUS
100
AcDbEntity
100
AcDbPolyline
 90
4
 70
1
 10
18.7348031579671
 20
2.2222157431683418
 30
0.0
 10
18.800204821198641
 20
2.239740066014889
 30
0.0
 10
18.7783713727788
 20
2.3212236048221619
 30
0.0
 10
18.712969709547249
 20
2.3036992819756161
 30
0.0
  0
LINE
  5
1E9
100
AcDbEntity
100
AcDbLine
  8
Muros y tabiques
 62
256
370
-1
  6
CONTINUOUS
 10
2.997807878162118
 20
6.639170457317519
 30
0.0
 11
15.3104317673304
 21
7.2576127531204886
 31
0.0
  0
LINE
  5
1EA
100
AcDbEntity
100
AcDbLine
  8
Muros y tabiques
 62
256
370
-1
  6
CONTINUOUS
 10
8.7013777982385871
 20
6.7144903571391659
 30
0.0
 11
11.036255578563781
 21
6.8317673232742209
 31
0.0
  0
LINE
  5
1EB
100
AcDbEntity
100
AcDbLine
  8
Muros y tabiques
 62
256
370
-1
  6
CONTINUOUS
 10
4.5252835026966238
 20
1.317197297445708
 30
0.0
 11
4.6271678210384151
 21
0.3747673527841543
 31
0.0
  0
LINE
  5
1EC
100
AcDbEntity
100
AcDbLine
  8
Muros y tabiques
 62
256
370
-1
  6
CONTINUOUS
 10
4.9300150010875532
 20
-2.426569062670358
 30
0.0
 11
9.6755546890515287
 21
-2.426569062670358
 31
0.0
  0
LINE
  5
1ED
100
AcDbEntity
100
AcDbLine
  8
Muros y tabiques
 62
256
370
-1
  6
CONTINUOUS
 10
4.7967754150882342
 20
-1.1941028921766741
 30
0.0
 11
4.9300150010875532
 21
-2.426569062670358
 31
0.0
  0
LINE
  5
1EE
100
AcDbEntity
100
AcDbLine
  8
Muros y tabiques
 62
256
370
-1
  6
CONTINUOUS
 10
3.50395567909825
 20
6.4534326251275536
 30
0.0
 11
8.5579692546400121
 21
6.7072871882826126
 31
0.0
  0
LINE
  5
1EF
100
AcDbEntity
100
AcDbLine
  8
Muros y tabiques
 62
256
370
-1
  6
CONTINUOUS
 10
4.2872699090830597
 20
3.518823038371143
 30
0.0
 11
4.3556759086468038
 21
2.8860675424065358
 31
0.0
  0
LWPOLYLINE
  5
1F0
  8
Muros y tabiques
 62
256
370
-1
  6
CONTINUOUS
100
AcDbEntity
100
AcDbPolyline
 90
4
 70
1
 10
4.2104112946665664
 20
3.518823038371143
 30
0.0
 10
4.2104112946665664
 20
3.8140759222505531
 30
0.0
 10
4.5056641785459703
 20
3.8140759222505531
 30
0.0
 10
4.5056641785459703
 20
3.518823038371143
 30
0.0
  0
LINE
  5
1F1
100
AcDbEntity
100
AcDbLine
  8
Muros y tabiques
 62
256
370
-1
  6
CONTINUOUS
 10
4.0660263890945316
 20
3.6031810051938291
 30
0.0
 11
2.997807878162118
 21
3.6031810051938322
 31
0.0
  0
LINE
  5
1F2
100
AcDbEntity
100
AcDbLine
  8
Muros y tabiques
 62
256
370
-1
  6
CONTINUOUS
 10
3.2087027952188412
 20
3.8140759222505549
 30
0.0
 11
4.2553506783933974
 21
3.8140759222505531
 31
0.0
  0
LWPOLYLINE
  5
1F3
  8
Muros y tabiques
 62
256
370
-1
  6
CONTINUOUS
100
AcDbEntity
100
AcDbPolyline
 90
4
 70
1
 10
3.2087027952188412
 20
6.1995050154164684
 30
0.0
 10
3.2087027952188412
 20
6.4947578992958768
 30
0.0
 10
3.50395567909825
 20
6.4947578992958768
 30
0.0
 10
3.50395567909825
 20
6.1995050154164684
 30
0.0
  0
LINE
  5
1F4
100
AcDbEntity
100
AcDbLine
  8
Muros y tabiques
 62
256
370
-1
  6
CONTINUOUS
 10
9.1103636728608066
 20
4.6482672925279616
 30
0.0
 11
9.1103636728608066
 21
4.8087947199160368
 31
0.0
  0
LINE
  5
1F5
100
AcDbEntity
100
AcDbLine
  8
Muros y tabiques
 62
256
370
-1
  6
CONTINUOUS
 10
4.5796846877217776
 20
0.8139863359630334
 30
0.0
 11
9.1103636728608066
 21
0.8139863359630334
 31
0.0
  0
LINE
  5
1F6
100
AcDbEntity
100
AcDbLine
  8
Muros y tabiques
 62
256
370
-1
  6
CONTINUOUS
 10
4.5641810613867948
 20
0.9573948795616063
 30
0.0
 11
9.1103636728608066
 21
0.9573948795616063
 31
0.0
  0
LINE
  5
1F7
100
AcDbEntity
100
AcDbLine
  8
Muros y tabiques
 62
256
370
-1
  6
CONTINUOUS
 10
4.5056641785459703
 20
3.8140759222505531
 30
0.0
 11
9.1103636728608066
 21
3.8140759222505531
 31
0.0
  0
LINE
  5
1F8
100
AcDbEntity
100
AcDbLine
  8
Muros y tabiques
 62
256
370
-1
  6
CONTINUOUS
 10
4.5056641785459703
 20
3.670667378651979
 30
0.0
 11
9.1103636728608066
 21
3.670667378651979
 31
0.0
  0
LINE
  5
1F9
100
AcDbEntity
100
AcDbLine
  8
Muros y tabiques
 62
256
370
-1
  6
CONTINUOUS
 10
4.5056641785459703
 20
3.8140759222505531
 30
0.0
 11
4.5056641785459703
 21
3.670667378651979
 31
0.0
  0
LINE
  5
1FA
100
AcDbEntity
100
AcDbLine
  8
Muros y tabiques
 62
256
370
-1
  6
CONTINUOUS
 10
9.9225042588316956
 20
2.6400643173404319
 30
0.0
 11
9.9225042588316956
 21
1.8925126260452221
 31
0.0
  0
LINE
  5
1FB
100
AcDbEntity
100
AcDbLine
  8
Muros y tabiques
 62
256
370
-1
  6
CONTINUOUS
 10
9.1103636728608013
 20
2.7935285788147848
 30
0.0
 11
9.1103636728608013
 21
2.4966557737418622
 31
0.0
  0
LINE
  5
1FC
100
AcDbEntity
100
AcDbLine
  8
Muros y tabiques
 62
256
370
-1
  6
CONTINUOUS
 10
9.1103636728608013
 20
1.892512626045219
 30
0.0
 11
9.1103636728608066
 21
0.6524446910657659
 31
0.0
  0
LINE
  5
1FD
100
AcDbEntity
100
AcDbLine
  8
Muros y tabiques
 62
256
370
-1
  6
CONTINUOUS
 10
9.1103636728608066
 20
0.8139863359630334
 30
0.0
 11
9.1103636728608066
 21
0.9573948795616063
 31
0.0
  0
LINE
  5
1FE
100
AcDbEntity
100
AcDbLine
  8
Muros y tabiques
 62
256
370
-1
  6
CONTINUOUS
 10
9.7790957152331242
 20
1.892512626045219
 30
0.0
 11
9.7790957152331242
 21
2.4966557737418591
 31
0.0
  0
LINE
  5
1FF
100
AcDbEntity
100
AcDbLine
  8
Muros y tabiques
 62
256
370
-1
  6
CONTINUOUS
 10
9.9225042588316956
 20
1.892512626045219
 30
0.0
 11
10.2853510410413
 21
1.892512626045219
 31
0.0
  0
LINE
  5
200
100
AcDbEntity
100
AcDbLine
  8
Muros y tabiques
 62
256
370
-1
  6
CONTINUOUS
 10
9.1103636728608066
 20
1.892512626045219
 30
0.0
 11
9.7790957152331242
 21
1.892512626045219
 31
0.0
  0
LINE
  5
201
100
AcDbEntity
100
AcDbLine
  8
Muros y tabiques
 62
256
370
-1
  6
CONTINUOUS
 10
9.2537722164593781
 20
1.7491040824466459
 30
0.0
 11
10.2853510410413
 21
1.7491040824466459
 31
0.0
  0
LINE
  5
202
100
AcDbEntity
100
AcDbLine
  8
Muros y tabiques
 62
256
370
-1
  6
CONTINUOUS
 10
9.7790957152331242
 20
2.4966557737418591
 30
0.0
 11
9.1103636728608013
 21
2.4966557737418622
 31
0.0
  0
LINE
  5
203
100
AcDbEntity
100
AcDbLine
  8
Muros y tabiques
 62
256
370
-1
  6
CONTINUOUS
 10
10.2853510410413
 20
1.7491040824466459
 30
0.0
 11
10.2853510410413
 21
1.892512626045219
 31
0.0
  0
LINE
  5
204
100
AcDbEntity
100
AcDbLine
  8
Muros y tabiques
 62
256
370
-1
  6
CONTINUOUS
 10
9.2537722164593781
 20
2.6400643173404319
 30
0.0
 11
9.9225042588316956
 21
2.6400643173404319
 31
0.0
  0
LINE
  5
205
100
AcDbEntity
100
AcDbLine
  8
Muros y tabiques
 62
256
370
-1
  6
CONTINUOUS
 10
9.1103636728608066
 20
3.8140759222505531
 30
0.0
 11
9.1103636728608066
 21
3.938916574569721
 31
0.0
  0
LINE
  5
206
100
AcDbEntity
100
AcDbLine
  8
Muros y tabiques
 62
256
370
-1
  6
CONTINUOUS
 10
9.2537722164593781
 20
3.653835636691936
 30
0.0
 11
9.2537722164593781
 21
3.938916574569721
 31
0.0
  0
LINE
  5
207
100
AcDbEntity
100
AcDbLine
  8
Muros y tabiques
 62
256
370
-1
  6
CONTINUOUS
 10
9.1103636728608066
 20
3.5028792967730249
 30
0.0
 11
9.1103636728608066
 21
3.653835636691936
 31
0.0
  0
LINE
  5
208
100
AcDbEntity
100
AcDbLine
  8
Muros y tabiques
 62
256
370
-1
  6
CONTINUOUS
 10
8.5579692546400121
 20
6.7072871882826126
 30
0.0
 11
8.5579692546400121
 21
4.8087947199160368
 31
0.0
  0
LINE
  5
209
100
AcDbEntity
100
AcDbLine
  8
Muros y tabiques
 62
256
370
-1
  6
CONTINUOUS
 10
8.7013777982385871
 20
6.7144903571391659
 30
0.0
 11
8.7013777982385871
 21
4.9522032635146127
 31
0.0
  0
LINE
  5
20A
100
AcDbEntity
100
AcDbLine
  8
Muros y tabiques
 62
256
370
-1
  6
CONTINUOUS
 10
8.5579692546400121
 20
4.8087947199160368
 30
0.0
 11
9.1103636728608066
 21
4.8087947199160368
 31
0.0
  0
LINE
  5
20B
100
AcDbEntity
100
AcDbLine
  8
Muros y tabiques
 62
256
370
-1
  6
CONTINUOUS
 10
8.7013777982385871
 20
4.9522032635146127
 30
0.0
 11
10.426366496499631
 21
4.9522032635146127
 31
0.0
  0
LINE
  5
20C
100
AcDbEntity
100
AcDbLine
  8
Muros y tabiques
 62
256
370
-1
  6
CONTINUOUS
 10
18.402287335662699
 20
4.2780170744015624
 30
0.0
 11
19.491295548262681
 21
0.2137830951186943
 31
0.0
  0
LINE
  5
20D
100
AcDbEntity
100
AcDbLine
  8
Muros y tabiques
 62
256
370
-1
  6
CONTINUOUS
 10
11.47491700604176
 20
0.0049712841583526
 30
0.0
 11
11.47491700604176
 21
0.5941815822243959
 31
0.0
  0
LINE
  5
20E
100
AcDbEntity
100
AcDbLine
  8
Muros y tabiques
 62
256
370
-1
  6
CONTINUOUS
 10
15.402706853591519
 20
-1.077240417282052
 30
0.0
 11
15.402706853591519
 21
0.4407543087797908
 31
0.0
  0
LINE
  5
20F
100
AcDbEntity
100
AcDbLine
  8
Muros y tabiques
 62
256
370
-1
  6
CONTINUOUS
 10
15.613601770648231
 20
0.2298593917230673
 30
0.0
 11
19.48698791757025
 21
0.2298593917230673
 31
0.0
  0
LINE
  5
210
100
AcDbEntity
100
AcDbLine
  8
Muros y tabiques
 62
256
370
-1
  6
CONTINUOUS
 10
11.47491700604176
 20
0.2973457651812207
 30
0.0
 11
15.402706853591519
 21
0.2973457651812207
 31
0.0
  0
LINE
  5
211
100
AcDbEntity
100
AcDbLine
  8
Muros y tabiques
 62
256
370
-1
  6
CONTINUOUS
 10
11.47491700604176
 20
-1.077240417282052
 30
0.0
 11
15.402706853591519
 21
-1.077240417282052
 31
0.0
  0
LINE
  5
212
100
AcDbEntity
100
AcDbLine
  8
Muros y tabiques
 62
256
370
-1
  6
CONTINUOUS
 10
15.613601770648231
 20
-1.2881353343387729
 30
0.0
 11
13.083610560545161
 21
-1.2881353343387729
 31
0.0
  0
LINE
  5
213
100
AcDbEntity
100
AcDbLine
  8
Muros y tabiques
 62
256
370
-1
  6
CONTINUOUS
 10
13.083610560545161
 20
-2.637463979727082
 30
0.0
 11
13.083610560545161
 21
-1.2881353343387729
 31
0.0
  0
LINE
  5
214
100
AcDbEntity
100
AcDbLine
  8
Muros y tabiques
 62
256
370
-1
  6
CONTINUOUS
 10
10.79916622629738
 20
-2.426569062670358
 30
0.0
 11
11.331508462443191
 21
-2.4265690626703562
 31
0.0
  0
LINE
  5
215
100
AcDbEntity
100
AcDbLine
  8
Muros y tabiques
 62
256
370
-1
  6
CONTINUOUS
 10
11.47491700604176
 20
-0.7043794337998907
 30
0.0
 11
11.47491700604176
 21
-1.077240417282052
 31
0.0
  0
LINE
  5
216
100
AcDbEntity
100
AcDbLine
  8
Muros y tabiques
 62
256
370
-1
  6
CONTINUOUS
 10
15.613601770648231
 20
-1.2881353343387729
 30
0.0
 11
15.613601770648231
 21
0.2298593917230673
 31
0.0
  0
LINE
  5
217
100
AcDbEntity
100
AcDbLine
  8
Muros y tabiques
 62
256
370
-1
  6
CONTINUOUS
 10
11.47491700604176
 20
0.4407543087797908
 30
0.0
 11
19.21214431065869
 21
0.4407543087797908
 31
0.0
  0
LINE
  5
218
100
AcDbEntity
100
AcDbLine
  8
Muros y tabiques
 62
256
370
-1
  6
CONTINUOUS
 10
15.942867253641371
 20
3.670667378651979
 30
0.0
 11
17.189029326804789
 21
3.670667378651979
 31
0.0
  0
LINE
  5
219
100
AcDbEntity
100
AcDbLine
  8
Muros y tabiques
 62
256
370
-1
  6
CONTINUOUS
 10
16.153762170698101
 20
3.8815622957086999
 30
0.0
 11
17.15628660262799
 21
3.8815622957086999
 31
0.0
  0
LINE
  5
21A
100
AcDbEntity
100
AcDbLine
  8
Muros y tabiques
 62
256
370
-1
  6
CONTINUOUS
 10
15.641901319330771
 20
6.6167716192531261
 30
0.0
 11
17.423851111747378
 21
7.538469787744484
 31
0.0
  0
LINE
  5
21B
100
AcDbEntity
100
AcDbLine
  8
Muros y tabiques
 62
256
370
-1
  6
CONTINUOUS
 10
15.595394139313241
 20
6.7066855006203427
 30
0.0
 11
17.489074131200681
 21
7.6861751515965979
 31
0.0
  0
LWPOLYLINE
  5
21C
  8
Muros y tabiques
 62
256
370
-1
  6
CONTINUOUS
100
AcDbEntity
100
AcDbPolyline
 90
4
 70
1
 10
11.331508462443191
 20
6.8465973768024107
 30
0.0
 10
11.331508462443191
 20
4.709487665887786
 30
0.0
 10
11.47491700604176
 20
4.709487665887786
 30
0.0
 10
11.47491700604176
 20
6.8465973768024107
 30
0.0
  0
LINE
  5
21D
100
AcDbEntity
100
AcDbLine
  8
Muros y tabiques
 62
256
370
-1
  6
CONTINUOUS
 10
16.153762170698101
 20
3.8815622957086999
 30
0.0
 11
16.153762170698101
 21
5.627173973276288
 31
0.0
  0
LINE
  5
21E
100
AcDbEntity
100
AcDbLine
  8
Muros y tabiques
 62
256
370
-1
  6
CONTINUOUS
 10
11.47491700604176
 20
3.8140759222505531
 30
0.0
 11
15.942867253641371
 21
3.8140759222505531
 31
0.0
  0
LINE
  5
21F
100
AcDbEntity
100
AcDbLine
  8
Muros y tabiques
 62
256
370
-1
  6
CONTINUOUS
 10
11.47491700604176
 20
3.670667378651979
 30
0.0
 11
15.942867253641371
 21
3.670667378651979
 31
0.0
  0
LINE
  5
220
100
AcDbEntity
100
AcDbLine
  8
Muros y tabiques
 62
256
370
-1
  6
CONTINUOUS
 10
11.47491700604176
 20
1.4454024437742841
 30
0.0
 11
11.47491700604176
 21
3.670667378651979
 31
0.0
  0
LINE
  5
221
100
AcDbEntity
100
AcDbLine
  8
Muros y tabiques
 62
256
370
-1
  6
CONTINUOUS
 10
11.331508462443191
 20
1.892512626045219
 30
0.0
 11
11.331508462443191
 21
4.0001369479295477
 31
0.0
  0
LINE
  5
222
100
AcDbEntity
100
AcDbLine
  8
Muros y tabiques
 62
256
370
-1
  6
CONTINUOUS
 10
11.22169398874617
 20
1.892512626045219
 30
0.0
 11
11.22169398874617
 21
1.7491040824466459
 31
0.0
  0
LINE
  5
223
100
AcDbEntity
100
AcDbLine
  8
Muros y tabiques
 62
256
370
-1
  6
CONTINUOUS
 10
11.22169398874617
 20
1.892512626045219
 30
0.0
 11
11.331508462443191
 21
1.892512626045219
 31
0.0
  0
LINE
  5
224
100
AcDbEntity
100
AcDbLine
  8
Muros y tabiques
 62
256
370
-1
  6
CONTINUOUS
 10
11.22169398874617
 20
1.7491040824466459
 30
0.0
 11
11.331508462443191
 21
1.7491040824466459
 31
0.0
  0
LWPOLYLINE
  5
225
  8
Muros y tabiques
 62
256
370
-1
  6
CONTINUOUS
100
AcDbEntity
100
AcDbPolyline
 90
4
 70
1
 10
11.47491700604176
 20
3.3754144947725671
 30
0.0
 10
11.47491700604176
 20
3.670667378651979
 30
0.0
 10
11.77016988992118
 20
3.670667378651979
 30
0.0
 10
11.77016988992118
 20
3.3754144947725671
 30
0.0
  0
LINE
  5
226
100
AcDbEntity
100
AcDbLine
  8
Muros y tabiques
 62
256
370
-1
  6
CONTINUOUS
 10
11.47491700604176
 20
4.0001369479295477
 30
0.0
 11
11.331508462443191
 21
4.0001369479295477
 31
0.0
  0
LINE
  5
227
100
AcDbEntity
100
AcDbLine
  8
Muros y tabiques
 62
256
370
-1
  6
CONTINUOUS
 10
11.47491700604176
 20
4.0001369479295477
 30
0.0
 11
11.47491700604176
 21
3.8140759222505531
 31
0.0
  0
LINE
  5
228
100
AcDbEntity
100
AcDbLine
  8
Muros y tabiques
 62
256
370
-1
  6
CONTINUOUS
 10
11.47491700604176
 20
4.709487665887786
 30
0.0
 11
11.392185850980329
 21
4.709487665887786
 31
0.0
  0
LINE
  5
229
100
AcDbEntity
100
AcDbLine
  8
Muros y tabiques
 62
256
370
-1
  6
CONTINUOUS
 10
11.331508462443191
 20
6.8465973768024107
 30
0.0
 11
15.01796881405774
 21
7.03176205199766
 31
0.0
  0
LINE
  5
22A
100
AcDbEntity
100
AcDbLine
  8
Muros y tabiques
 62
256
370
-1
  6
CONTINUOUS
 10
11.13571721445787
 20
4.9522032635146127
 30
0.0
 11
11.3315084624432
 21
4.9522032635146127
 31
0.0
  0
LWPOLYLINE
  5
22B
  8
Muros y tabiques
 62
256
370
-1
  6
CONTINUOUS
100
AcDbEntity
100
AcDbPolyline
 90
4
 70
1
 10
11.036255578563781
 20
6.5860123011016078
 30
0.0
 10
11.036255578563781
 20
6.8812651849810109
 30
0.0
 10
11.331508462443191
 20
6.8812651849810109
 30
0.0
 10
11.331508462443191
 20
6.5860123011016078
 30
0.0
  0
LINE
  5
22C
100
AcDbEntity
100
AcDbLine
  8
Muros y tabiques
 62
256
370
-1
  6
CONTINUOUS
 10
15.3104317673304
 20
7.2576127531204886
 30
0.0
 11
16.153762170698101
 21
5.627173973276288
 31
0.0
  0
LWPOLYLINE
  5
22D
  8
Muros y tabiques
 62
256
370
-1
  6
CONTINUOUS
100
AcDbEntity
100
AcDbPolyline
 90
4
 70
1
 10
15.01796881405774
 20
6.7931757956263459
 30
0.0
 10
15.01796881405774
 20
7.0884286795057578
 30
0.0
 10
15.31322169793715
 20
7.0884286795057578
 30
0.0
 10
15.31322169793715
 20
6.7931757956263459
 30
0.0
  0
LINE
  5
22E
100
AcDbEntity
100
AcDbLine
  8
Muros y tabiques
 62
256
370
-1
  6
CONTINUOUS
 10
15.31322169793715
 20
6.7931757956263459
 30
0.0
 11
15.37173631061081
 21
6.6800475444572607
 31
0.0
  0
LINE
  5
22F
100
AcDbEntity
100
AcDbLine
  8
Muros y tabiques
 62
256
370
-1
  6
CONTINUOUS
 10
15.37173631061081
 20
6.6800475444572607
 30
0.0
 11
15.5590568967925
 21
6.7769375028271019
 31
0.0
  0
LINE
  5
230
100
AcDbEntity
100
AcDbLine
  8
Muros y tabiques
 62
256
370
-1
  6
CONTINUOUS
 10
17.489074131200681
 20
7.6861751515965979
 30
0.0
 11
18.402287335662699
 21
4.2780170744015624
 31
0.0
  0
LINE
  5
231
100
AcDbEntity
100
AcDbLine
  8
Muros y tabiques
 62
256
370
-1
  6
CONTINUOUS
 10
17.423851111747378
 20
7.538469787744484
 30
0.0
 11
18.304507089093981
 21
4.2518169362977529
 31
0.0
  0
LINE
  5
232
100
AcDbEntity
100
AcDbLine
  8
Muros y tabiques
 62
256
370
-1
  6
CONTINUOUS
 10
19.104945640806189
 20
0.8408251911731184
 30
0.0
 11
19.21645194135111
 21
0.4246780121754177
 31
0.0
  0
LINE
  5
233
100
AcDbEntity
100
AcDbLine
  8
Muros y tabiques
 62
256
370
-1
  6
CONTINUOUS
 10
17.189029326804789
 20
3.670667378651979
 30
0.0
 11
18.255747028883359
 21
4.0100775565860713
 31
0.0
  0
LINE
  5
234
100
AcDbEntity
100
AcDbLine
  8
Muros y tabiques
 62
256
370
-1
  6
CONTINUOUS
 10
17.15628660262799
 20
3.8815622957086999
 30
0.0
 11
18.402287335662699
 21
4.2780170744015624
 31
0.0
  0
LINE
  5
235
100
AcDbEntity
100
AcDbLine
  8
Muros y tabiques
 62
256
370
-1
  6
CONTINUOUS
 10
18.364660675127979
 20
3.603606295163567
 30
0.0
 11
18.255747028883359
 21
4.0100775565860713
 31
0.0
  0
LINE
  5
236
100
AcDbEntity
100
AcDbLine
  8
Muros y tabiques
 62
256
370
-1
  6
ByLayer
 10
2.997807878162118
 20
5.751720316225966
 30
0.0
 11
3.2087027952188412
 21
5.7517203162259598
 31
0.0
  0
LINE
  5
237
100
AcDbEntity
100
AcDbLine
  8
Muros y tabiques
 62
256
370
-1
  6
ByLayer
 10
2.997807878162118
 20
4.173708725177506
 30
0.0
 11
3.2087027952188412
 21
4.173708725177506
 31
0.0
  0
LINE
  5
238
100
AcDbEntity
100
AcDbLine
  8
Muros y tabiques
 62
256
370
-1
  6
ByLayer
 10
4.1460027056660795
 20
2.8634000769070109
 30
0.0
 11
4.3556752267001171
 21
2.8860674686825725
 31
0.0
  0
LINE
  5
239
100
AcDbEntity
100
AcDbLine
  8
Muros y tabiques
 62
256
370
-1
  6
ByLayer
 10
4.3156102997159307
 20
1.2945298319458811
 30
0.0
 11
4.5252835026966238
 21
1.317197297445708
 31
0.0
  0
LINE
  5
23A
100
AcDbEntity
100
AcDbLine
  8
Muros y tabiques
 62
256
370
-1
  6
ByLayer
 10
4.4174946180576882
 20
0.3520998872846249
 30
0.0
 11
4.6271671390917284
 21
0.3747672790601865
 31
0.0
  0
LINE
  5
23B
100
AcDbEntity
100
AcDbLine
  8
Muros y tabiques
 62
256
370
-1
  6
ByLayer
 10
4.5871022121075384
 20
-1.2167703576765028
 30
0.0
 11
4.7967754150882342
 21
-1.1941028921766741
 31
0.0
  0
LINE
  5
23C
100
AcDbEntity
100
AcDbLine
  8
Muros y tabiques
 62
256
370
-1
  6
CONTINUOUS
 10
2.997807878162118
 20
3.6031810051938322
 30
0.0
 11
2.997807878162118
 21
4.173708725177506
 31
0.0
  0
LINE
  5
23D
100
AcDbEntity
100
AcDbLine
  8
Muros y tabiques
 62
256
370
-1
  6
CONTINUOUS
 10
2.997807878162118
 20
5.751720316225966
 30
0.0
 11
2.997807878162118
 21
6.639170457317519
 31
0.0
  0
LINE
  5
23E
100
AcDbEntity
100
AcDbLine
  8
Muros y tabiques
 62
256
370
-1
  6
CONTINUOUS
 10
3.2087027952188412
 20
6.4386025715993638
 30
0.0
 11
3.2087027952188412
 21
5.7517203162259598
 31
0.0
  0
LINE
  5
23F
100
AcDbEntity
100
AcDbLine
  8
Muros y tabiques
 62
256
370
-1
  6
CONTINUOUS
 10
3.2087027952188412
 20
4.173708725177506
 30
0.0
 11
3.2087027952188412
 21
3.8140759222505549
 31
0.0
  0
LINE
  5
240
100
AcDbEntity
100
AcDbLine
  8
Muros y tabiques
 62
256
370
-1
  6
CONTINUOUS
 10
4.1460027056660795
 20
2.8634000769070114
 30
0.0
 11
4.0660263890945316
 21
3.6031810051938291
 31
0.0
  0
LINE
  5
241
100
AcDbEntity
100
AcDbLine
  8
Muros y tabiques
 62
256
370
-1
  6
CONTINUOUS
 10
4.7406907117886821
 20
-2.637463979727082
 30
0.0
 11
4.5871022121075384
 21
-1.2167703576765028
 31
0.0
  0
LINE
  5
242
100
AcDbEntity
100
AcDbLine
  8
Muros y tabiques
 62
256
370
-1
  6
CONTINUOUS
 10
4.4174946180576882
 20
0.3520998872846249
 30
0.0
 11
4.3156102997159307
 21
1.2945298319458809
 31
0.0
  0
LINE
  5
243
100
AcDbEntity
100
AcDbLine
  8
Muros y tabiques
 62
256
370
-1
  6
ByLayer
 10
2.997807878162118
 20
5.751720316225966
 30
0.0
 11
2.997807878162118
 21
4.173708725177506
 31
0.0
  0
LINE
  5
244
100
AcDbEntity
100
AcDbLine
  8
Muros y tabiques
 62
256
370
-1
  6
ByLayer
 10
3.2087027952188412
 20
5.7517203162259598
 30
0.0
 11
3.2087027952188412
 21
4.173708725177506
 31
0.0
  0
LINE
  5
245
100
AcDbEntity
100
AcDbLine
  8
Muros y tabiques
 62
256
370
-1
  6
ByLayer
 10
4.1460027056660795
 20
2.8634000769070109
 30
0.0
 11
4.3156102997159307
 21
1.2945298319458811
 31
0.0
  0
LINE
  5
246
100
AcDbEntity
100
AcDbLine
  8
Muros y tabiques
 62
256
370
-1
  6
ByLayer
 10
4.3556759086467718
 20
2.8860675424068352
 30
0.0
 11
4.5252835026966238
 21
1.317197297445708
 31
0.0
  0
LINE
  5
247
100
AcDbEntity
100
AcDbLine
  8
Muros y tabiques
 62
256
370
-1
  6
ByLayer
 10
4.4174946180576882
 20
0.3520998872846249
 30
0.0
 11
4.5871022121075384
 21
-1.2167703576765028
 31
0.0
  0
LINE
  5
248
100
AcDbEntity
100
AcDbLine
  8
Muros y tabiques
 62
256
370
-1
  6
ByLayer
 10
4.6271678210383831
 20
0.374767352784449
 30
0.0
 11
4.7967754150882342
 21
-1.1941028921766741
 31
0.0
  0
LINE
  5
249
100
AcDbEntity
100
AcDbLine
  8
Muros y tabiques
 62
256
370
-1
  6
CONTINUOUS
 10
15.942867253641371
 20
3.670667378651979
 30
0.0
 11
15.942867253641371
 21
5.5758610545981764
 31
0.0
  0
LINE
  5
24A
100
AcDbEntity
100
AcDbLine
  8
Muros y tabiques
 62
256
370
-1
  6
CONTINUOUS
 10
15.37173631061081
 20
6.6800475444572607
 30
0.0
 11
15.942867253641371
 21
5.5758610545981764
 31
0.0
  0
LINE
  5
24B
100
AcDbEntity
100
AcDbLine
  8
Muros y tabiques
 62
256
370
-1
  6
ByLayer
 10
15.942867253641371
 20
5.4097347447579143
 30
0.0
 11
16.153762170698101
 21
5.409734744757916
 31
0.0
  0
LINE
  5
24C
100
AcDbEntity
100
AcDbLine
  8
Muros y tabiques
 62
256
370
-1
  6
ByLayer
 10
15.942867253641371
 20
4.0185407897391316
 30
0.0
 11
16.153762170698101
 21
4.0185407897391316
 31
0.0
  0
LINE
  5
24D
100
AcDbEntity
100
AcDbLine
  8
Muros y tabiques
 62
256
370
-1
  6
ByLayer
 10
18.364660675127979
 20
3.6036062951635635
 30
0.0
 11
18.56836952214616
 21
3.6581899162131615
 31
0.0
  0
LINE
  5
24E
100
AcDbEntity
100
AcDbLine
  8
Muros y tabiques
 62
256
370
-1
  6
ByLayer
 10
19.104945640806189
 20
0.8408251911731184
 30
0.0
 11
19.30865448782437
 21
0.8954088122227157
 31
0.0
  0
LINE
  5
24F
100
AcDbEntity
100
AcDbLine
  8
Muros y tabiques
 62
256
370
-1
  6
ByLayer
 10
18.364660675127979
 20
3.6036062951635639
 30
0.0
 11
19.104945640806189
 21
0.8408251911731184
 31
0.0
  0
ARC
  5
250
100
AcDbEntity
  8
puertas
 62
256
370
-1
  6
CONTINUOUS
100
AcDbCircle
 10
9.1930948279222431
 20
3.469607791388349
 30
0.0
 40
0.642807707188887
100
AcDbArc
 50
179.9999906653326
 51
270.0
  0
LINE
  5
251
100
AcDbEntity
100
AcDbLine
  8
puertas
 62
256
370
-1
  6
CONTINUOUS
 10
9.1930948279222431
 20
3.4321106751356618
 30
0.0
 11
8.5502871207333548
 21
3.4321106751356618
 31
0.0
  0
LINE
  5
252
100
AcDbEntity
100
AcDbLine
  8
puertas
 62
256
370
-1
  6
CONTINUOUS
 10
8.5502871207333548
 20
3.469607791388349
 30
0.0
 11
9.1930948279222431
 21
3.469607791388349
 31
0.0
  0
LINE
  5
253
100
AcDbEntity
100
AcDbLine
  8
puertas
 62
256
370
-1
  6
CONTINUOUS
 10
9.1930948279222431
 20
3.469607791388349
 30
0.0
 11
9.1930948279222431
 21
3.4321106751356618
 31
0.0
  0
LINE
  5
254
100
AcDbEntity
100
AcDbLine
  8
puertas
 62
256
370
-1
  6
CONTINUOUS
 10
8.5502871207333548
 20
3.4321106751356618
 30
0.0
 11
8.5502871207333548
 21
3.469607791388349
 31
0.0
  0
LWPOLYLINE
  5
255
  8
puertas
 62
256
370
-1
  6
CONTINUOUS
100
AcDbEntity
100
AcDbPolyline
 90
5
 70
0
 10
9.1930948279222431
 20
3.469607791388349
 30
0.0
 10
9.2537722164593781
 20
3.469607791388349
 30
0.0
 10
9.2537722164593781
 20
3.5028792967730249
 30
0.0
 10
9.1930948279222431
 20
3.5028792967730249
 30
0.0
 10
9.1930948279222431
 20
3.469607791388349
 30
0.0
  0
LWPOLYLINE
  5
256
  8
puertas
 62
256
370
-1
  6
CONTINUOUS
100
AcDbEntity
100
AcDbPolyline
 90
4
 70
1
 10
9.1930948279222431
 20
2.7935285788147848
 30
0.0
 10
9.2537722164593781
 20
2.7935285788147848
 30
0.0
 10
9.2537722164593781
 20
2.8268000841994629
 30
0.0
 10
9.1930948279222431
 20
2.8268000841994629
 30
0.0
  0
ARC
  5
257
100
AcDbEntity
  8
puertas
 62
256
370
-1
  6
CONTINUOUS
100
AcDbCircle
 10
9.1930948279222431
 20
4.6149957871432834
 30
0.0
 40
0.642807707188887
100
AcDbArc
 50
179.9999906653326
 51
270.0
  0
LINE
  5
258
100
AcDbEntity
100
AcDbLine
  8
puertas
 62
256
370
-1
  6
CONTINUOUS
 10
9.1930948279222431
 20
4.5774986708905994
 30
0.0
 11
8.5502871207333548
 21
4.5774986708905994
 31
0.0
  0
LINE
  5
259
100
AcDbEntity
100
AcDbLine
  8
puertas
 62
256
370
-1
  6
CONTINUOUS
 10
8.5502871207333548
 20
4.6149957871432834
 30
0.0
 11
9.1930948279222431
 21
4.6149957871432834
 31
0.0
  0
LINE
  5
25A
100
AcDbEntity
100
AcDbLine
  8
puertas
 62
256
370
-1
  6
CONTINUOUS
 10
9.1930948279222431
 20
4.6149957871432834
 30
0.0
 11
9.1930948279222431
 21
4.5774986708905994
 31
0.0
  0
LINE
  5
25B
100
AcDbEntity
100
AcDbLine
  8
puertas
 62
256
370
-1
  6
CONTINUOUS
 10
8.5502871207333548
 20
4.5774986708905994
 30
0.0
 11
8.5502871207333548
 21
4.6149957871432834
 31
0.0
  0
LWPOLYLINE
  5
25C
  8
puertas
 62
256
370
-1
  6
CONTINUOUS
100
AcDbEntity
100
AcDbPolyline
 90
4
 70
1
 10
9.1930948279222431
 20
4.6149957871432834
 30
0.0
 10
9.2537722164593781
 20
4.6149957871432834
 30
0.0
 10
9.2537722164593781
 20
4.6482672925279616
 30
0.0
 10
9.1930948279222431
 20
4.6482672925279616
 30
0.0
  0
LWPOLYLINE
  5
25D
  8
puertas
 62
256
370
-1
  6
CONTINUOUS
100
AcDbEntity
100
AcDbPolyline
 90
4
 70
1
 10
9.1930948279222431
 20
3.938916574569721
 30
0.0
 10
9.2537722164593781
 20
3.938916574569721
 30
0.0
 10
9.2537722164593781
 20
3.9721880799543969
 30
0.0
 10
9.1930948279222431
 20
3.9721880799543969
 30
0.0
  0
ARC
  5
25E
100
AcDbEntity
  8
puertas
 62
256
370
-1
  6
CONTINUOUS
100
AcDbCircle
 10
11.1777756016384
 20
1.8291982353156659
 30
0.0
 40
0.848506173489331
100
AcDbArc
 50
89.99999066533266
 51
180.0
  0
LINE
  5
25F
100
AcDbEntity
100
AcDbLine
  8
puertas
 62
256
370
-1
  6
CONTINUOUS
 10
11.128279408184859
 20
1.8291982353156659
 30
0.0
 11
11.128279408184859
 21
2.6777044088049959
 31
0.0
  0
LINE
  5
260
100
AcDbEntity
100
AcDbLine
  8
puertas
 62
256
370
-1
  6
CONTINUOUS
 10
11.1777756016384
 20
2.6777044088049959
 30
0.0
 11
11.1777756016384
 21
1.8291982353156659
 31
0.0
  0
LINE
  5
261
100
AcDbEntity
100
AcDbLine
  8
puertas
 62
256
370
-1
  6
CONTINUOUS
 10
11.1777756016384
 20
1.8291982353156659
 30
0.0
 11
11.128279408184859
 21
1.8291982353156659
 31
0.0
  0
LINE
  5
262
100
AcDbEntity
100
AcDbLine
  8
puertas
 62
256
370
-1
  6
CONTINUOUS
 10
11.128279408184859
 20
2.6777044088049959
 30
0.0
 11
11.1777756016384
 21
2.6777044088049959
 31
0.0
  0
LWPOLYLINE
  5
263
  8
puertas
 62
256
370
-1
  6
CONTINUOUS
100
AcDbEntity
100
AcDbPolyline
 90
4
 70
1
 10
11.1777756016384
 20
1.8291982353156659
 30
0.0
 10
11.1777756016384
 20
1.7491040824466459
 30
0.0
 10
11.22169398874617
 20
1.7491040824466459
 30
0.0
 10
11.22169398874617
 20
1.8291982353156659
 30
0.0
  0
LWPOLYLINE
  5
264
  8
puertas
 62
256
370
-1
  6
CONTINUOUS
100
AcDbEntity
100
AcDbPolyline
 90
4
 70
1
 10
10.2853510410413
 20
1.8291982353156659
 30
0.0
 10
10.2853510410413
 20
1.7491040824466459
 30
0.0
 10
10.32926942814907
 20
1.7491040824466459
 30
0.0
 10
10.32926942814907
 20
1.8291982353156659
 30
0.0
  0
ARC
  5
265
100
AcDbEntity
  8
puertas
 62
256
370
-1
  6
CONTINUOUS
100
AcDbCircle
 10
11.404321328687759
 20
0.6341073886860075
 30
0.0
 40
0.7713692486266645
100
AcDbArc
 50
0.0
 51
90.0
  0
LINE
  5
266
100
AcDbEntity
100
AcDbLine
  8
puertas
 62
256
370
-1
  6
CONTINUOUS
 10
11.404321328687759
 20
0.6791039281892302
 30
0.0
 11
12.17569057731443
 21
0.6791039281892302
 31
0.0
  0
LINE
  5
267
100
AcDbEntity
100
AcDbLine
  8
puertas
 62
256
370
-1
  6
CONTINUOUS
 10
12.17569057731443
 20
0.6341073886860075
 30
0.0
 11
11.404321328687759
 21
0.6341073886860075
 31
0.0
  0
LINE
  5
268
100
AcDbEntity
100
AcDbLine
  8
puertas
 62
256
370
-1
  6
CONTINUOUS
 10
11.404321328687759
 20
0.6341073886860075
 30
0.0
 11
11.404321328687759
 21
0.6791039281892302
 31
0.0
  0
LINE
  5
269
100
AcDbEntity
100
AcDbLine
  8
puertas
 62
256
370
-1
  6
CONTINUOUS
 10
12.17569057731443
 20
0.6791039281892302
 30
0.0
 11
12.17569057731443
 21
0.6341073886860075
 31
0.0
  0
LWPOLYLINE
  5
26A
  8
puertas
 62
256
370
-1
  6
CONTINUOUS
100
AcDbEntity
100
AcDbPolyline
 90
5
 70
0
 10
11.404321328687759
 20
0.6341073886860075
 30
0.0
 10
11.331508462443191
 20
0.6341073886860075
 30
0.0
 10
11.331508462443191
 20
0.5941815822243959
 30
0.0
 10
11.404321328687759
 20
0.5941815822243959
 30
0.0
 10
11.404321328687759
 20
0.6341073886860075
 30
0.0
  0
LWPOLYLINE
  5
26B
  8
puertas
 62
256
370
-1
  6
CONTINUOUS
100
AcDbEntity
100
AcDbPolyline
 90
4
 70
1
 10
11.404321328687759
 20
1.4454024437742841
 30
0.0
 10
11.331508462443191
 20
1.4454024437742841
 30
0.0
 10
11.331508462443191
 20
1.4054766373126719
 30
0.0
 10
11.404321328687759
 20
1.4054766373126719
 30
0.0
  0
ARC
  5
26C
100
AcDbEntity
  8
puertas
 62
256
370
-1
  6
CONTINUOUS
100
AcDbCircle
 10
11.392185850980329
 20
-0.0283002212263262
 30
0.0
 40
0.642807707188887
100
AcDbArc
 50
270.0
 51
0.0000093346673591
  0
LINE
  5
26D
100
AcDbEntity
100
AcDbLine
  8
puertas
 62
256
370
-1
  6
CONTINUOUS
 10
11.392185850980329
 20
-0.0657973374790132
 30
0.0
 11
12.034993558169219
 21
-0.0657973374790132
 31
0.0
  0
LINE
  5
26E
100
AcDbEntity
100
AcDbLine
  8
puertas
 62
256
370
-1
  6
CONTINUOUS
 10
12.034993558169219
 20
-0.0283002212263262
 30
0.0
 11
11.392185850980329
 21
-0.0283002212263262
 31
0.0
  0
LINE
  5
26F
100
AcDbEntity
100
AcDbLine
  8
puertas
 62
256
370
-1
  6
CONTINUOUS
 10
11.392185850980329
 20
-0.0283002212263262
 30
0.0
 11
11.392185850980329
 21
-0.0657973374790132
 31
0.0
  0
LINE
  5
270
100
AcDbEntity
100
AcDbLine
  8
puertas
 62
256
370
-1
  6
CONTINUOUS
 10
12.034993558169219
 20
-0.0657973374790132
 30
0.0
 11
12.034993558169219
 21
-0.0283002212263262
 31
0.0
  0
LWPOLYLINE
  5
271
  8
puertas
 62
256
370
-1
  6
CONTINUOUS
100
AcDbEntity
100
AcDbPolyline
 90
4
 70
1
 10
11.392185850980329
 20
-0.0283002212263262
 30
0.0
 10
11.331508462443191
 20
-0.0283002212263262
 30
0.0
 10
11.331508462443191
 20
0.0049712841583526
 30
0.0
 10
11.392185850980329
 20
0.0049712841583526
 30
0.0
  0
LWPOLYLINE
  5
272
  8
puertas
 62
256
370
-1
  6
CONTINUOUS
100
AcDbEntity
100
AcDbPolyline
 90
4
 70
1
 10
11.392185850980329
 20
-0.7043794337998907
 30
0.0
 10
11.331508462443191
 20
-0.7043794337998907
 30
0.0
 10
11.331508462443191
 20
-0.6711079284152117
 30
0.0
 10
11.392185850980329
 20
-0.6711079284152117
 30
0.0
  0
LINE
  5
273
100
AcDbEntity
100
AcDbLine
  8
puertas
 62
256
370
-1
  6
CONTINUOUS
 10
11.47491700604176
 20
0.0049712841583526
 30
0.0
 11
11.331508462443191
 21
0.0049712841583526
 31
0.0
  0
ARC
  5
274
100
AcDbEntity
  8
puertas
 62
256
370
-1
  6
CONTINUOUS
100
AcDbCircle
 10
9.1930948279222431
 20
0.61917318568109
 30
0.0
 40
0.642807707188887
100
AcDbArc
 50
179.9999906653326
 51
270.0
  0
LINE
  5
275
100
AcDbEntity
100
AcDbLine
  8
puertas
 62
256
370
-1
  6
CONTINUOUS
 10
9.1930948279222431
 20
0.581676069428403
 30
0.0
 11
8.5502871207333548
 21
0.581676069428403
 31
0.0
  0
LINE
  5
276
100
AcDbEntity
100
AcDbLine
  8
puertas
 62
256
370
-1
  6
CONTINUOUS
 10
8.5502871207333548
 20
0.61917318568109
 30
0.0
 11
9.1930948279222431
 21
0.61917318568109
 31
0.0
  0
LINE
  5
277
100
AcDbEntity
100
AcDbLine
  8
puertas
 62
256
370
-1
  6
CONTINUOUS
 10
9.1930948279222431
 20
0.61917318568109
 30
0.0
 11
9.1930948279222431
 21
0.581676069428403
 31
0.0
  0
LINE
  5
278
100
AcDbEntity
100
AcDbLine
  8
puertas
 62
256
370
-1
  6
CONTINUOUS
 10
8.5502871207333548
 20
0.581676069428403
 30
0.0
 11
8.5502871207333548
 21
0.61917318568109
 31
0.0
  0
LWPOLYLINE
  5
279
  8
puertas
 62
256
370
-1
  6
CONTINUOUS
100
AcDbEntity
100
AcDbPolyline
 90
4
 70
1
 10
9.1930948279222431
 20
0.61917318568109
 30
0.0
 10
9.2537722164593781
 20
0.61917318568109
 30
0.0
 10
9.2537722164593781
 20
0.6524446910657659
 30
0.0
 10
9.1930948279222431
 20
0.6524446910657659
 30
0.0
  0
LWPOLYLINE
  5
27A
  8
puertas
 62
256
370
-1
  6
CONTINUOUS
100
AcDbEntity
100
AcDbPolyline
 90
4
 70
1
 10
9.1930948279222431
 20
-0.0569060268924744
 30
0.0
 10
9.2537722164593781
 20
-0.0569060268924744
 30
0.0
 10
9.2537722164593781
 20
-0.0236345215077985
 30
0.0
 10
9.1930948279222431
 20
-0.0236345215077985
 30
0.0
  0
LINE
  5
27B
100
AcDbEntity
100
AcDbLine
  8
Muros y tabiques
 62
256
370
-1
  6
CONTINUOUS
 10
9.1103636728608066
 20
-2.426569062670358
 30
0.0
 11
9.1103636728608066
 21
-0.0569060268924744
 31
0.0
  0
ARC
  5
27C
100
AcDbEntity
  8
puertas
 62
256
370
-1
  6
CONTINUOUS
100
AcDbCircle
 10
11.1024457090732
 20
4.8694721084531718
 30
0.0
 40
0.642807707188887
100
AcDbArc
 50
89.99999066533266
 51
180.0
  0
LINE
  5
27D
100
AcDbEntity
100
AcDbLine
  8
puertas
 62
256
370
-1
  6
CONTINUOUS
 10
11.06494859282051
 20
4.8694721084531718
 30
0.0
 11
11.06494859282051
 21
5.51227981564206
 31
0.0
  0
LINE
  5
27E
100
AcDbEntity
100
AcDbLine
  8
puertas
 62
256
370
-1
  6
CONTINUOUS
 10
11.1024457090732
 20
5.51227981564206
 30
0.0
 11
11.1024457090732
 21
4.8694721084531718
 31
0.0
  0
LINE
  5
27F
100
AcDbEntity
100
AcDbLine
  8
puertas
 62
256
370
-1
  6
CONTINUOUS
 10
11.1024457090732
 20
4.8694721084531718
 30
0.0
 11
11.06494859282051
 21
4.8694721084531718
 31
0.0
  0
LINE
  5
280
100
AcDbEntity
100
AcDbLine
  8
puertas
 62
256
370
-1
  6
CONTINUOUS
 10
11.06494859282051
 20
5.51227981564206
 30
0.0
 11
11.1024457090732
 21
5.51227981564206
 31
0.0
  0
LWPOLYLINE
  5
281
  8
puertas
 62
256
370
-1
  6
CONTINUOUS
100
AcDbEntity
100
AcDbPolyline
 90
4
 70
1
 10
11.1024457090732
 20
4.8694721084531718
 30
0.0
 10
11.1024457090732
 20
4.8087947199160368
 30
0.0
 10
11.13571721445787
 20
4.8087947199160368
 30
0.0
 10
11.13571721445787
 20
4.8694721084531718
 30
0.0
  0
LWPOLYLINE
  5
282
  8
puertas
 62
256
370
-1
  6
CONTINUOUS
100
AcDbEntity
100
AcDbPolyline
 90
4
 70
1
 10
10.426366496499631
 20
4.8694721084531754
 30
0.0
 10
10.426366496499631
 20
4.8087947199160368
 30
0.0
 10
10.45963800188431
 20
4.8087947199160368
 30
0.0
 10
10.45963800188431
 20
4.8694721084531754
 30
0.0
  0
ARC
  5
283
100
AcDbEntity
  8
puertas
 62
256
370
-1
  6
CONTINUOUS
100
AcDbCircle
 10
11.392185850980329
 20
4.6762161605031096
 30
0.0
 40
0.642807707188887
100
AcDbArc
 50
270.0
 51
0.0000093346673591
  0
LINE
  5
284
100
AcDbEntity
100
AcDbLine
  8
puertas
 62
256
370
-1
  6
CONTINUOUS
 10
11.392185850980329
 20
4.638719044250422
 30
0.0
 11
12.034993558169219
 21
4.638719044250422
 31
0.0
  0
LINE
  5
285
100
AcDbEntity
100
AcDbLine
  8
puertas
 62
256
370
-1
  6
CONTINUOUS
 10
12.034993558169219
 20
4.6762161605031096
 30
0.0
 11
11.392185850980329
 21
4.6762161605031096
 31
0.0
  0
LINE
  5
286
100
AcDbEntity
100
AcDbLine
  8
puertas
 62
256
370
-1
  6
CONTINUOUS
 10
11.392185850980329
 20
4.6762161605031096
 30
0.0
 11
11.392185850980329
 21
4.638719044250422
 31
0.0
  0
LINE
  5
287
100
AcDbEntity
100
AcDbLine
  8
puertas
 62
256
370
-1
  6
CONTINUOUS
 10
12.034993558169219
 20
4.638719044250422
 30
0.0
 11
12.034993558169219
 21
4.6762161605031096
 31
0.0
  0
LWPOLYLINE
  5
288
  8
puertas
 62
256
370
-1
  6
CONTINUOUS
100
AcDbEntity
100
AcDbPolyline
 90
5
 70
0
 10
11.392185850980329
 20
4.6762161605031096
 30
0.0
 10
11.331508462443191
 20
4.6762161605031096
 30
0.0
 10
11.331508462443191
 20
4.709487665887786
 30
0.0
 10
11.392185850980329
 20
4.709487665887786
 30
0.0
 10
11.392185850980329
 20
4.6762161605031096
 30
0.0
  0
LWPOLYLINE
  5
289
  8
puertas
 62
256
370
-1
  6
CONTINUOUS
100
AcDbEntity
100
AcDbPolyline
 90
4
 70
1
 10
11.392185850980329
 20
4.0001369479295477
 30
0.0
 10
11.331508462443191
 20
4.0001369479295477
 30
0.0
 10
11.331508462443191
 20
4.0334084533142214
 30
0.0
 10
11.392185850980329
 20
4.0334084533142214
 30
0.0
  0
ARC
  5
28A
100
AcDbEntity
  8
puertas
 62
256
370
-1
  6
CONTINUOUS
100
AcDbCircle
 10
9.7282567535808546
 20
-2.5413509962842591
 30
0.0
 40
1.018207408187197
100
AcDbArc
 50
0.0
 51
90.000009334667354
  0
LINE
  5
28B
100
AcDbEntity
100
AcDbLine
  8
puertas
 62
256
370
-1
  6
CONTINUOUS
 10
9.7876521857251042
 20
-2.5413509962842591
 30
0.0
 11
9.7876521857251042
 21
-1.5231435880970601
 31
0.0
  0
LINE
  5
28C
100
AcDbEntity
100
AcDbLine
  8
puertas
 62
256
370
-1
  6
CONTINUOUS
 10
9.7282567535808546
 20
-1.5231435880970601
 30
0.0
 11
9.7282567535808546
 21
-2.5413509962842591
 31
0.0
  0
LINE
  5
28D
100
AcDbEntity
100
AcDbLine
  8
puertas
 62
256
370
-1
  6
CONTINUOUS
 10
9.7282567535808546
 20
-2.5413509962842591
 30
0.0
 11
9.7876521857251042
 21
-2.5413509962842591
 31
0.0
  0
LINE
  5
28E
100
AcDbEntity
100
AcDbLine
  8
puertas
 62
256
370
-1
  6
CONTINUOUS
 10
9.7876521857251042
 20
-1.5231435880970601
 30
0.0
 11
9.7282567535808546
 21
-1.5231435880970601
 31
0.0
  0
LWPOLYLINE
  5
28F
  8
puertas
 62
256
370
-1
  6
CONTINUOUS
100
AcDbEntity
100
AcDbPolyline
 90
4
 70
1
 10
9.7282567535808546
 20
-2.5413509962842591
 30
0.0
 10
9.7282567535808546
 20
-2.637463979727082
 30
0.0
 10
9.6755546890515287
 20
-2.637463979727082
 30
0.0
 10
9.6755546890515287
 20
-2.5413509962842591
 30
0.0
  0
LWPOLYLINE
  5
290
  8
puertas
 62
256
370
-1
  6
CONTINUOUS
100
AcDbEntity
100
AcDbPolyline
 90
4
 70
1
 10
10.79916622629738
 20
-2.5413509962842591
 30
0.0
 10
10.79916622629738
 20
-2.637463979727082
 30
0.0
 10
10.746464161768049
 20
-2.637463979727082
 30
0.0
 10
10.746464161768049
 20
-2.5413509962842591
 30
0.0
  0
LINE
  5
291
100
AcDbEntity
100
AcDbLine
  8
Muros y tabiques
 62
256
370
-1
  6
CONTINUOUS
 10
9.2537722164593781
 20
-0.0569060268924744
 30
0.0
 11
9.2537722164593781
 21
-2.426569062670358
 31
0.0
  0
LINE
  5
292
100
AcDbEntity
100
AcDbLine
  8
Muros y tabiques
 62
256
370
-1
  6
CONTINUOUS
 10
9.1103636728608066
 20
-0.0569060268924744
 30
0.0
 11
9.2537722164593781
 21
-0.0569060268924744
 31
0.0
  0
LINE
  5
293
100
AcDbEntity
100
AcDbLine
  8
Muros y tabiques
 62
256
370
-1
  6
CONTINUOUS
 10
11.47491700604176
 20
0.0049712841583526
 30
0.0
 11
11.331508462443191
 21
0.0049712841583526
 31
0.0
  0
LINE
  5
294
100
AcDbEntity
100
AcDbLine
  8
Muros y tabiques
 62
256
370
-1
  6
CONTINUOUS
 10
11.331508462443191
 20
-0.7043794337998907
 30
0.0
 11
11.331508462443191
 21
-2.4265690626703562
 31
0.0
  0
LINE
  5
295
100
AcDbEntity
100
AcDbLine
  8
Muros y tabiques
 62
256
370
-1
  6
CONTINUOUS
 10
11.47491700604176
 20
-0.7043794337998907
 30
0.0
 11
11.331508462443191
 21
-0.7043794337998907
 31
0.0
  0
LINE
  5
296
100
AcDbEntity
100
AcDbLine
  8
Muros y tabiques
 62
256
370
-1
  6
CONTINUOUS
 10
9.2537722164593781
 20
0.6524446910657659
 30
0.0
 11
9.2537722164593781
 21
1.7491040824466459
 31
0.0
  0
LINE
  5
297
100
AcDbEntity
100
AcDbLine
  8
Muros y tabiques
 62
256
370
-1
  6
CONTINUOUS
 10
9.1103636728608066
 20
0.6524446910657659
 30
0.0
 11
9.2537722164593781
 21
0.6524446910657659
 31
0.0
  0
LINE
  5
298
100
AcDbEntity
100
AcDbLine
  8
Muros y tabiques
 62
256
370
-1
  6
CONTINUOUS
 10
11.331508462443191
 20
0.5941815822243959
 30
0.0
 11
11.331508462443191
 21
0.0049712841583526
 31
0.0
  0
LINE
  5
299
100
AcDbEntity
100
AcDbLine
  8
Muros y tabiques
 62
256
370
-1
  6
CONTINUOUS
 10
11.331508462443191
 20
0.5941815822243959
 30
0.0
 11
11.47491700604176
 21
0.5941815822243959
 31
0.0
  0
LINE
  5
29A
100
AcDbEntity
100
AcDbLine
  8
Muros y tabiques
 62
256
370
-1
  6
CONTINUOUS
 10
11.331508462443191
 20
1.4454024437742841
 30
0.0
 11
11.331508462443191
 21
1.7491040824466459
 31
0.0
  0
LINE
  5
29B
100
AcDbEntity
100
AcDbLine
  8
Muros y tabiques
 62
256
370
-1
  6
CONTINUOUS
 10
11.331508462443191
 20
1.4454024437742841
 30
0.0
 11
11.47491700604176
 21
1.4454024437742841
 31
0.0
  0
LINE
  5
29C
100
AcDbEntity
100
AcDbLine
  8
Muros y tabiques
 62
256
370
-1
  6
CONTINUOUS
 10
9.2537722164593781
 20
2.7935285788147848
 30
0.0
 11
9.2537722164593781
 21
2.6400643173404319
 31
0.0
  0
LINE
  5
29D
100
AcDbEntity
100
AcDbLine
  8
Muros y tabiques
 62
256
370
-1
  6
CONTINUOUS
 10
9.1103636728608066
 20
2.7935285788147848
 30
0.0
 11
9.2537722164593781
 21
2.7935285788147848
 31
0.0
  0
LINE
  5
29E
100
AcDbEntity
100
AcDbLine
  8
Muros y tabiques
 62
256
370
-1
  6
CONTINUOUS
 10
4.7406907117886821
 20
-2.637463979727082
 30
0.0
 11
9.6755546890515287
 21
-2.637463979727082
 31
0.0
  0
LINE
  5
29F
100
AcDbEntity
100
AcDbLine
  8
Muros y tabiques
 62
256
370
-1
  6
CONTINUOUS
 10
9.6755546890515287
 20
-2.637463979727082
 30
0.0
 11
9.6755546890515287
 21
-2.426569062670358
 31
0.0
  0
LINE
  5
2A0
100
AcDbEntity
100
AcDbLine
  8
Muros y tabiques
 62
256
370
-1
  6
CONTINUOUS
 10
10.79916622629738
 20
-2.637463979727082
 30
0.0
 11
13.083610560545161
 21
-2.637463979727082
 31
0.0
  0
LINE
  5
2A1
100
AcDbEntity
100
AcDbLine
  8
Muros y tabiques
 62
256
370
-1
  6
CONTINUOUS
 10
10.79916622629738
 20
-2.637463979727082
 30
0.0
 11
10.79916622629738
 21
-2.426569062670358
 31
0.0
  0
LINE
  5
2A2
100
AcDbEntity
100
AcDbLine
  8
Muros y tabiques
 62
256
370
-1
  6
CONTINUOUS
 10
9.2537722164593781
 20
3.5028792967730249
 30
0.0
 11
9.1157520867184232
 21
3.5028792967730249
 31
0.0
  0
LINE
  5
2A3
100
AcDbEntity
100
AcDbLine
  8
Muros y tabiques
 62
256
370
-1
  6
CONTINUOUS
 10
9.1103636728608066
 20
3.938916574569721
 30
0.0
 11
9.2537722164593781
 21
3.938916574569721
 31
0.0
  0
LINE
  5
2A4
100
AcDbEntity
100
AcDbLine
  8
Muros y tabiques
 62
256
370
-1
  6
CONTINUOUS
 10
9.2537722164593781
 20
3.5028792967730249
 30
0.0
 11
9.2537722164593781
 21
3.938916574569721
 31
0.0
  0
LINE
  5
2A5
100
AcDbEntity
100
AcDbLine
  8
Muros y tabiques
 62
256
370
-1
  6
CONTINUOUS
 10
9.2537722164593781
 20
4.6482672925279616
 30
0.0
 11
9.2537722164593781
 21
4.8087947199160368
 31
0.0
  0
LINE
  5
2A6
100
AcDbEntity
100
AcDbLine
  8
Muros y tabiques
 62
256
370
-1
  6
CONTINUOUS
 10
9.1103636728608066
 20
4.6482672925279616
 30
0.0
 11
9.2537722164593781
 21
4.6482672925279616
 31
0.0
  0
LINE
  5
2A7
100
AcDbEntity
100
AcDbLine
  8
Muros y tabiques
 62
256
370
-1
  6
CONTINUOUS
 10
10.426366496499631
 20
4.8087947199160368
 30
0.0
 11
10.426366496499631
 21
4.9522032635146127
 31
0.0
  0
LINE
  5
2A8
100
AcDbEntity
100
AcDbLine
  8
Muros y tabiques
 62
256
370
-1
  6
CONTINUOUS
 10
9.2537722164593781
 20
4.8087947199160368
 30
0.0
 11
10.426366496499631
 21
4.8087947199160368
 31
0.0
  0
LINE
  5
2A9
100
AcDbEntity
100
AcDbLine
  8
Muros y tabiques
 62
256
370
-1
  6
CONTINUOUS
 10
11.13571721445787
 20
4.8087947199160368
 30
0.0
 11
11.331508462443191
 21
4.8087947199160368
 31
0.0
  0
LINE
  5
2AA
100
AcDbEntity
100
AcDbLine
  8
Muros y tabiques
 62
256
370
-1
  6
CONTINUOUS
 10
11.13571721445787
 20
4.8087947199160368
 30
0.0
 11
11.13571721445787
 21
4.9522032635146127
 31
0.0
  0
LINE
  5
2AB
100
AcDbEntity
100
AcDbLine
  8
Muros y tabiques
 62
256
370
-1
  6
ByLayer
 10
16.00668029561524
 20
5.4097347447579152
 30
0.0
 11
16.00668029561524
 21
5.6088678004467258
 31
0.0
  0
LINE
  5
2AC
100
AcDbEntity
100
AcDbLine
  8
Muros y tabiques
 62
256
370
-1
  6
CONTINUOUS
 10
15.43554935258468
 20
6.7130542903058137
 30
0.0
 11
16.00668029561524
 21
5.6088678004467258
 31
0.0
  0
INSERT
  5
2AD
100
AcDbEntity
100
AcDbBlockReference
  8
sanitarios
 62
256
370
-1
  6
ByLayer
  2
Bañera
 10
8.7613777982385876
 20
6.7144903571391659
 30
0.0
  0
INSERT
  5
2AE
100
AcDbEntity
100
AcDbBlockReference
  8
sanitarios
 62
256
370
-1
  6
ByLayer
  2
WC
 10
15.402706853591519
 20
0.1408908215855067
 30
0.0
 44
1.0
 45
1.0
  0
INSERT
  5
2AF
100
AcDbEntity
100
AcDbBlockReference
  8
sanitarios
 62
256
370
-1
  6
ByLayer
  2
Bide
 10
15.402706853591519
 20
-0.4830542454360229
 30
0.0
 44
1.0
 45
1.0
  0
INSERT
  5
2B0
100
AcDbEntity
100
AcDbBlockReference
  8
sanitarios
 62
256
370
-1
  6
ByLayer
  2
Lavabo
 10
8.7013777982385818
 20
5.4465849681000567
 30
0.0
 50
90.0
 44
1.0
 45
1.0
  0
HATCH
  5
2B1
  8
Muros y tabiques
 62
256
370
-1
  6
ByLayer
100
AcDbEntity
100
AcDbHatch
 10
0.0
 20
0.0
 30
0.0
210
0.0
220
0.0
230
1.0
  2
ansi31
 70
0
 71
0
 91
1
 92
1
 93
18
 72
1
 10
2.997807878162118
 20
5.751720316225966
 11
2.997807878162118
 21
6.639170457317519
 72
1
 10
2.997807878162118
 20
6.639170457317519
 11
15.3104317673304
 21
7.2576127531204886
 72
1
 10
15.3104317673304
 20
7.2576127531204886
 11
15.5590568967925
 21
6.7769375028271019
 72
1
 10
15.5590568967925
 20
6.7769375028271019
 11
15.37173631061081
 21
6.6800475444572607
 72
1
 10
15.37173631061081
 20
6.6800475444572607
 11
15.31322169793715
 21
6.7931757956263459
 72
1
 10
15.31322169793715
 20
6.7931757956263459
 11
15.31322169793715
 21
7.0884286795057578
 72
1
 10
15.31322169793715
 20
7.0884286795057578
 11
15.01796881405774
 21
7.0884286795057578
 72
1
 10
15.01796881405774
 20
7.0884286795057578
 11
15.01796881405774
 21
7.03176205199766
 72
1
 10
15.01796881405774
 20
7.03176205199766
 11
11.331508462443191
 21
6.8465973768024107
 72
1
 10
11.331508462443191
 20
6.8465973768024107
 11
11.331508462443191
 21
6.8812651849810109
 72
1
 10
11.331508462443191
 20
6.8812651849810109
 11
11.036255578563781
 21
6.8812651849810109
 72
1
 10
11.036255578563781
 20
6.8812651849810109
 11
11.036255578563781
 21
6.8317673232742209
 72
1
 10
11.036255578563781
 20
6.8317673232742209
 11
8.7013777982385871
 21
6.7144903571391659
 72
1
 10
8.7013777982385871
 20
6.7144903571391659
 11
3.50395567909825
 21
6.4534326251275536
 72
1
 10
3.50395567909825
 20
6.4534326251275536
 11
3.50395567909825
 21
6.4947578992958768
 72
1
 10
3.50395567909825
 20
6.4947578992958768
 11
3.2087027952188412
 21
6.4947578992958768
 72
1
 10
3.2087027952188412
 20
6.4947578992958768
 11
3.2087027952188412
 21
5.7517203162259598
 72
1
 10
3.2087027952188412
 20
5.7517203162259598
 11
2.997807878162118
 21
5.751720316225966
 97
0
 75
0
 76
1
 52
0.0
 41
0.2
 77
0
 78
1
 53
45.0
 43
0.0
 44
0.0
 45
-0.0883883476483184
 46
0.0883883476483185
 79
0
 98
0
  0
HATCH
  5
2B2
  8
Muros y tabiques
 62
256
370
-1
  6
ByLayer
100
AcDbEntity
100
AcDbHatch
 10
0.0
 20
0.0
 30
0.0
210
0.0
220
0.0
230
1.0
  2
ansi31
 70
0
 71
0
 91
1
 92
1
 93
10
 72
1
 10
16.153762170698101
 20
4.0185407897391316
 11
16.153762170698101
 21
3.8815622957086999
 72
1
 10
16.153762170698101
 20
3.8815622957086999
 11
17.15628660262799
 21
3.8815622957086999
 72
1
 10
17.15628660262799
 20
3.8815622957086999
 11
18.402287335662699
 21
4.2780170744015624
 72
1
 10
18.402287335662699
 20
4.2780170744015624
 11
18.56836952214616
 21
3.6581899162131615
 72
1
 10
18.56836952214616
 20
3.6581899162131615
 11
18.364660675127979
 21
3.6036062951635639
 72
1
 10
18.364660675127979
 20
3.6036062951635639
 11
18.255747028883359
 21
4.0100775565860713
 72
1
 10
18.255747028883359
 20
4.0100775565860713
 11
17.189029326804789
 21
3.670667378651979
 72
1
 10
17.189029326804789
 20
3.670667378651979
 11
15.942867253641371
 21
3.670667378651979
 72
1
 10
15.942867253641371
 20
3.670667378651979
 11
15.942867253641371
 21
4.0185407897391316
 72
1
 10
15.942867253641371
 20
4.0185407897391316
 11
16.153762170698101
 21
4.0185407897391316
 97
0
 75
0
 76
1
 52
0.0
 41
0.2
 77
0
 78
1
 53
45.0
 43
0.0
 44
0.0
 45
-0.0883883476483184
 46
0.0883883476483185
 79
0
 98
0
  0
HATCH
  5
2B3
  8
Muros y tabiques
 62
256
370
-1
  6
ByLayer
100
AcDbEntity
100
AcDbHatch
 10
0.0
 20
0.0
 30
0.0
210
0.0
220
0.0
230
1.0
  2
ansi31
 70
0
 71
0
 91
1
 92
1
 93
10
 72
1
 10
4.1460027056660795
 20
2.8634000769070109
 11
4.0660263890945316
 21
3.6031810051938291
 72
1
 10
4.0660263890945316
 20
3.6031810051938291
 11
2.997807878162118
 21
3.6031810051938322
 72
1
 10
2.997807878162118
 20
3.6031810051938322
 11
2.997807878162118
 21
4.173708725177506
 72
1
 10
2.997807878162118
 20
4.173708725177506
 11
3.2087027952188412
 21
4.173708725177506
 72
1
 10
3.2087027952188412
 20
4.173708725177506
 11
3.2087027952188412
 21
3.8140759222505549
 72
1
 10
3.2087027952188412
 20
3.8140759222505549
 11
4.2104112946665664
 21
3.8140759222505531
 72
1
 10
4.2104112946665664
 20
3.8140759222505531
 11
4.2104112946665664
 21
3.518823038371143
 72
1
 10
4.2104112946665664
 20
3.518823038371143
 11
4.2872699090830597
 21
3.518823038371143
 72
1
 10
4.2872699090830597
 20
3.518823038371143
 11
4.3556759086467718
 21
2.8860675424068347
 72
1
 10
4.3556759086467718
 20
2.8860675424068347
 11
4.1460027056660795
 21
2.8634000769070109
 97
0
 75
0
 76
1
 52
0.0
 41
0.2
 77
0
 78
1
 53
45.0
 43
0.0
 44
0.0
 45
-0.0883883476483184
 46
0.0883883476483185
 79
0
 98
0
  0
HATCH
  5
2B4
  8
Muros y tabiques
 62
256
370
-1
  6
ByLayer
100
AcDbEntity
100
AcDbHatch
 10
0.0
 20
0.0
 30
0.0
210
0.0
220
0.0
230
1.0
  2
ansi31
 70
0
 71
0
 91
1
 92
1
 93
9
 72
1
 10
4.5056641785459703
 20
3.8140759222505531
 11
9.1103636728608066
 21
3.8140759222505531
 72
1
 10
9.1103636728608066
 20
3.8140759222505531
 11
9.1103636728608066
 21
3.938916574569721
 72
1
 10
9.1103636728608066
 20
3.938916574569721
 11
9.2537722164593781
 21
3.938916574569721
 72
1
 10
9.2537722164593781
 20
3.938916574569721
 11
9.2537722164593781
 21
3.5028792967730249
 72
1
 10
9.2537722164593781
 20
3.5028792967730249
 11
9.1103636728608066
 21
3.5028792967730249
 72
1
 10
9.1103636728608066
 20
3.5028792967730249
 11
9.1103636728608066
 21
3.5028792967730249
 72
1
 10
9.1103636728608066
 20
3.5028792967730249
 11
9.1103636728608066
 21
3.670667378651979
 72
1
 10
9.1103636728608066
 20
3.670667378651979
 11
4.5056641785459703
 21
3.670667378651979
 72
1
 10
4.5056641785459703
 20
3.670667378651979
 11
4.5056641785459703
 21
3.8140759222505531
 97
0
 75
0
 76
1
 52
0.0
 41
0.1
 77
0
 78
1
 53
45.0
 43
0.0
 44
0.0
 45
-0.0883883476483184
 46
0.0883883476483185
 79
0
 98
0
  0
HATCH
  5
2B5
  8
Muros y tabiques
 62
256
370
-1
  6
ByLayer
100
AcDbEntity
100
AcDbHatch
 10
0.0
 20
0.0
 30
0.0
210
0.0
220
0.0
230
1.0
  2
ansi31
 70
0
 71
0
 91
1
 92
1
 93
12
 72
1
 10
15.942867253641371
 20
3.670667378651979
 11
11.47491700604176
 21
3.670667378651979
 72
1
 10
11.47491700604176
 20
3.670667378651979
 11
11.47491700604176
 21
1.4454024437742841
 72
1
 10
11.47491700604176
 20
1.4454024437742841
 11
11.331508462443191
 21
1.4454024437742841
 72
1
 10
11.331508462443191
 20
1.4454024437742841
 11
11.331508462443191
 21
1.7491040824466459
 72
1
 10
11.331508462443191
 20
1.7491040824466459
 11
11.22169398874617
 21
1.7491040824466459
 72
1
 10
11.22169398874617
 20
1.7491040824466459
 11
11.22169398874617
 21
1.892512626045219
 72
1
 10
11.22169398874617
 20
1.892512626045219
 11
11.331508462443191
 21
1.892512626045219
 72
1
 10
11.331508462443191
 20
1.892512626045219
 11
11.331508462443191
 21
4.0001369479295477
 72
1
 10
11.331508462443191
 20
4.0001369479295477
 11
11.47491700604176
 21
4.0001369479295477
 72
1
 10
11.47491700604176
 20
4.0001369479295477
 11
11.47491700604176
 21
3.8140759222505531
 72
1
 10
11.47491700604176
 20
3.8140759222505531
 11
15.942867253641371
 21
3.8140759222505531
 72
1
 10
15.942867253641371
 20
3.8140759222505531
 11
15.942867253641371
 21
3.670667378651979
 97
0
 75
0
 76
1
 52
0.0
 41
0.1
 77
0
 78
1
 53
45.0
 43
0.0
 44
0.0
 45
-0.0883883476483184
 46
0.0883883476483185
 79
0
 98
0
  0
HATCH
  5
2B6
  8
Muros y tabiques
 62
256
370
-1
  6
ByLayer
100
AcDbEntity
100
AcDbHatch
 10
0.0
 20
0.0
 30
0.0
210
0.0
220
0.0
230
1.0
  2
ansi31
 70
0
 71
0
 91
1
 92
1
 93
18
 72
1
 10
9.2537722164593781
 20
0.6524446910657659
 11
9.1103636728608066
 21
0.6524446910657659
 72
1
 10
9.1103636728608066
 20
0.6524446910657659
 11
9.1103636728608066
 21
0.8139863359630334
 72
1
 10
9.1103636728608066
 20
0.8139863359630334
 11
4.5796846877217785
 21
0.8139863359630335
 72
1
 10
4.5796846877217785
 20
0.8139863359630335
 11
4.5641810613867975
 21
0.9573948795616063
 72
1
 10
4.5641810613867975
 20
0.9573948795616063
 11
9.1103636728608048
 21
0.9573948795616063
 72
1
 10
9.1103636728608048
 20
0.9573948795616063
 11
9.1103636728608013
 21
1.892512626045219
 72
1
 10
9.1103636728608013
 20
1.892512626045219
 11
9.7790957152331242
 21
1.892512626045219
 72
1
 10
9.7790957152331242
 20
1.892512626045219
 11
9.7790957152331242
 21
2.4966557737418591
 72
1
 10
9.7790957152331242
 20
2.4966557737418591
 11
9.1103636728608013
 21
2.4966557737418622
 72
1
 10
9.1103636728608013
 20
2.4966557737418622
 11
9.1103636728608013
 21
2.7935285788147848
 72
1
 10
9.1103636728608013
 20
2.7935285788147848
 11
9.2537722164593781
 21
2.7935285788147848
 72
1
 10
9.2537722164593781
 20
2.7935285788147848
 11
9.2537722164593781
 21
2.6400643173404319
 72
1
 10
9.2537722164593781
 20
2.6400643173404319
 11
9.9225042588316956
 21
2.6400643173404319
 72
1
 10
9.9225042588316956
 20
2.6400643173404319
 11
9.9225042588316956
 21
1.892512626045219
 72
1
 10
9.9225042588316956
 20
1.892512626045219
 11
10.2853510410413
 21
1.892512626045219
 72
1
 10
10.2853510410413
 20
1.892512626045219
 11
10.2853510410413
 21
1.7491040824466459
 72
1
 10
10.2853510410413
 20
1.7491040824466459
 11
9.2537722164593781
 21
1.7491040824466459
 72
1
 10
9.2537722164593781
 20
1.7491040824466459
 11
9.2537722164593781
 21
0.6524446910657659
 97
0
 75
0
 76
1
 52
0.0
 41
0.1
 77
0
 78
1
 53
45.0
 43
0.0
 44
0.0
 45
-0.0883883476483184
 46
0.0883883476483185
 79
0
 98
0
  0
HATCH
  5
2B7
  8
Muros y tabiques
 62
256
370
-1
  6
ByLayer
100
AcDbEntity
100
AcDbHatch
 10
0.0
 20
0.0
 30
0.0
210
0.0
220
0.0
230
1.0
  2
ansi31
 70
0
 71
0
 91
1
 92
1
 93
10
 72
1
 10
8.5579692546400121
 20
6.7072871882826126
 11
8.7013777982385871
 21
6.7144903571391659
 72
1
 10
8.7013777982385871
 20
6.7144903571391659
 11
8.7013777982385871
 21
4.9522032635146127
 72
1
 10
8.7013777982385871
 20
4.9522032635146127
 11
10.426366496499631
 21
4.9522032635146127
 72
1
 10
10.426366496499631
 20
4.9522032635146127
 11
10.426366496499631
 21
4.8087947199160368
 72
1
 10
10.426366496499631
 20
4.8087947199160368
 11
9.2537722164593781
 21
4.8087947199160368
 72
1
 10
9.2537722164593781
 20
4.8087947199160368
 11
9.2537722164593781
 21
4.6482672925279616
 72
1
 10
9.2537722164593781
 20
4.6482672925279616
 11
9.1103636728608066
 21
4.6482672925279616
 72
1
 10
9.1103636728608066
 20
4.6482672925279616
 11
9.1103636728608066
 21
4.8087947199160368
 72
1
 10
9.1103636728608066
 20
4.8087947199160368
 11
8.5579692546400121
 21
4.8087947199160368
 72
1
 10
8.5579692546400121
 20
4.8087947199160368
 11
8.5579692546400121
 21
6.7072871882826126
 97
0
 75
0
 76
1
 52
0.0
 41
0.1
 77
0
 78
1
 53
45.0
 43
0.0
 44
0.0
 45
-0.0883883476483184
 46
0.0883883476483185
 79
0
 98
0
  0
HATCH
  5
2B8
  8
Muros y tabiques
 62
256
370
-1
  6
ByLayer
100
AcDbEntity
100
AcDbHatch
 10
0.0
 20
0.0
 30
0.0
210
0.0
220
0.0
230
1.0
  2
ansi31
 70
0
 71
0
 91
1
 92
1
 93
8
 72
1
 10
11.47491700604176
 20
6.8465973768024107
 11
11.47491700604176
 21
4.709487665887786
 72
1
 10
11.47491700604176
 20
4.709487665887786
 11
11.331508462443191
 21
4.709487665887786
 72
1
 10
11.331508462443191
 20
4.709487665887786
 11
11.331508462443191
 21
4.8087947199160368
 72
1
 10
11.331508462443191
 20
4.8087947199160368
 11
11.13571721445787
 21
4.8087947199160368
 72
1
 10
11.13571721445787
 20
4.8087947199160368
 11
11.13571721445787
 21
4.9522032635146127
 72
1
 10
11.13571721445787
 20
4.9522032635146127
 11
11.331508462443191
 21
4.9522032635146127
 72
1
 10
11.331508462443191
 20
4.9522032635146127
 11
11.331508462443191
 21
6.8465973768024107
 72
1
 10
11.331508462443191
 20
6.8465973768024107
 11
11.47491700604176
 21
6.8465973768024107
 97
0
 75
0
 76
1
 52
0.0
 41
0.1
 77
0
 78
1
 53
45.0
 43
0.0
 44
0.0
 45
-0.0883883476483184
 46
0.0883883476483185
 79
0
 98
0
  0
HATCH
  5
2B9
  8
Muros y tabiques
 62
256
370
-1
  6
ByLayer
100
AcDbEntity
100
AcDbHatch
 10
0.0
 20
0.0
 30
0.0
210
0.0
220
0.0
230
1.0
  2
ansi31
 70
0
 71
0
 91
1
 92
1
 93
16
 72
1
 10
19.30865448782437
 20
0.8954088122227157
 11
19.486987917570257
 21
0.2298593917230671
 72
1
 10
19.486987917570257
 20
0.2298593917230671
 11
15.613601770648231
 21
0.2298593917230673
 72
1
 10
15.613601770648231
 20
0.2298593917230673
 11
15.613601770648231
 21
-1.2881353343387729
 72
1
 10
15.613601770648231
 20
-1.2881353343387729
 11
13.083610560545161
 21
-1.2881353343387729
 72
1
 10
13.083610560545161
 20
-1.2881353343387729
 11
13.083610560545161
 21
-2.637463979727082
 72
1
 10
13.083610560545161
 20
-2.637463979727082
 11
10.79916622629738
 21
-2.637463979727082
 72
1
 10
10.79916622629738
 20
-2.637463979727082
 11
10.79916622629738
 21
-2.426569062670358
 72
1
 10
10.79916622629738
 20
-2.426569062670358
 11
11.331508462443191
 21
-2.4265690626703562
 72
1
 10
11.331508462443191
 20
-2.4265690626703562
 11
11.331508462443191
 21
-0.7043794337998907
 72
1
 10
11.331508462443191
 20
-0.7043794337998907
 11
11.47491700604176
 21
-0.7043794337998907
 72
1
 10
11.47491700604176
 20
-0.7043794337998907
 11
11.47491700604176
 21
-1.077240417282052
 72
1
 10
11.47491700604176
 20
-1.077240417282052
 11
15.402706853591519
 21
-1.077240417282052
 72
1
 10
15.402706853591519
 20
-1.077240417282052
 11
15.402706853591519
 21
0.4407543087797908
 72
1
 10
15.402706853591519
 20
0.4407543087797908
 11
19.212144310658687
 21
0.4407543087797909
 72
1
 10
19.212144310658687
 20
0.4407543087797909
 11
19.104945640806189
 21
0.8408251911731184
 72
1
 10
19.104945640806189
 20
0.8408251911731184
 11
19.30865448782437
 21
0.8954088122227163
 97
0
 75
0
 76
1
 52
0.0
 41
0.2
 77
0
 78
1
 53
45.0
 43
0.0
 44
0.0
 45
-0.0883883476483184
 46
0.0883883476483185
 79
0
 98
0
  0
HATCH
  5
2BA
  8
Muros y tabiques
 62
256
370
-1
  6
ByLayer
100
AcDbEntity
100
AcDbHatch
 10
0.0
 20
0.0
 30
0.0
210
0.0
220
0.0
230
1.0
  2
ansi31
 70
0
 71
0
 91
1
 92
1
 93
4
 72
1
 10
4.4174946180576882
 20
0.3520998872846249
 11
4.3156102997159307
 21
1.2945298319458811
 72
1
 10
4.3156102997159307
 20
1.2945298319458811
 11
4.5252835026966238
 21
1.317197297445708
 72
1
 10
4.5252835026966238
 20
1.317197297445708
 11
4.6271678210383831
 21
0.3747673527844491
 72
1
 10
4.6271678210383831
 20
0.3747673527844491
 11
4.4174946180576882
 21
0.3520998872846249
 97
0
 75
0
 76
1
 52
0.0
 41
0.2
 77
0
 78
1
 53
45.0
 43
0.0
 44
0.0
 45
-0.0883883476483184
 46
0.0883883476483185
 79
0
 98
0
  0
HATCH
  5
2BB
  8
Muros y tabiques
 62
256
370
-1
  6
ByLayer
100
AcDbEntity
100
AcDbHatch
 10
0.0
 20
0.0
 30
0.0
210
0.0
220
0.0
230
1.0
  2
ansi31
 70
0
 71
0
 91
1
 92
1
 93
6
 72
1
 10
9.6755546890515287
 20
-2.637463979727082
 11
4.7406907117886821
 21
-2.637463979727082
 72
1
 10
4.7406907117886821
 20
-2.637463979727082
 11
4.5871022121075384
 21
-1.2167703576765028
 72
1
 10
4.5871022121075384
 20
-1.2167703576765028
 11
4.7967754150882342
 21
-1.1941028921766741
 72
1
 10
4.7967754150882342
 20
-1.1941028921766741
 11
4.9300150010875532
 21
-2.426569062670358
 72
1
 10
4.9300150010875532
 20
-2.426569062670358
 11
9.6755546890515287
 21
-2.426569062670358
 72
1
 10
9.6755546890515287
 20
-2.426569062670358
 11
9.6755546890515287
 21
-2.637463979727082
 97
0
 75
0
 76
1
 52
0.0
 41
0.2
 77
0
 78
1
 53
45.0
 43
0.0
 44
0.0
 45
-0.0883883476483184
 46
0.0883883476483185
 79
0
 98
0
  0
HATCH
  5
2BC
  8
Muros y tabiques
 62
256
370
-1
  6
ByLayer
100
AcDbEntity
100
AcDbHatch
 10
0.0
 20
0.0
 30
0.0
210
0.0
220
0.0
230
1.0
  2
ansi31
 70
0
 71
0
 91
1
 92
1
 93
8
 72
1
 10
15.402706853591519
 20
0.2973457651812207
 11
11.47491700604176
 21
0.2973457651812207
 72
1
 10
11.47491700604176
 20
0.2973457651812207
 11
11.47491700604176
 21
0.0049712841583526
 72
1
 10
11.47491700604176
 20
0.0049712841583526
 11
11.331508462443191
 21
0.0049712841583526
 72
1
 10
11.331508462443191
 20
0.0049712841583526
 11
11.331508462443191
 21
0.5941815822243959
 72
1
 10
11.331508462443191
 20
0.5941815822243959
 11
11.47491700604176
 21
0.5941815822243959
 72
1
 10
11.47491700604176
 20
0.5941815822243959
 11
11.47491700604176
 21
0.4407543087797908
 72
1
 10
11.47491700604176
 20
0.4407543087797908
 11
15.402706853591519
 21
0.4407543087797908
 72
1
 10
15.402706853591519
 20
0.4407543087797908
 11
15.402706853591519
 21
0.2973457651812207
 97
0
 75
0
 76
1
 52
0.0
 41
0.1
 77
0
 78
1
 53
45.0
 43
0.0
 44
0.0
 45
-0.0883883476483184
 46
0.0883883476483185
 79
0
 98
0
  0
HATCH
  5
2BD
  8
Muros y tabiques
 62
256
370
-1
  6
ByLayer
100
AcDbEntity
100
AcDbHatch
 10
0.0
 20
0.0
 30
0.0
210
0.0
220
0.0
230
1.0
  2
ansi31
 70
0
 71
0
 91
1
 92
1
 93
4
 72
1
 10
9.1103636728608066
 20
-2.426569062670358
 11
9.1103636728608066
 21
-0.0569060268924744
 72
1
 10
9.1103636728608066
 20
-0.0569060268924744
 11
9.2537722164593781
 21
-0.0569060268924744
 72
1
 10
9.2537722164593781
 20
-0.0569060268924744
 11
9.2537722164593781
 21
-2.426569062670358
 72
1
 10
9.2537722164593781
 20
-2.426569062670358
 11
9.1103636728608066
 21
-2.426569062670358
 97
0
 75
0
 76
1
 52
0.0
 41
0.1
 77
0
 78
1
 53
45.0
 43
0.0
 44
0.0
 45
-0.0883883476483184
 46
0.0883883476483185
 79
0
 98
0
  0
INSERT
  5
2BE
100
AcDbEntity
100
AcDbBlockReference
  8
Cocina
 62
256
370
-1
  6
ByLayer
  2
vitroceramica
 10
6.338627690754679
 20
-2.426569062670358
 30
0.0
  0
LINE
  5
2BF
100
AcDbEntity
100
AcDbLine
  8
Cocina
 62
256
370
-1
  6
ByLayer
 10
4.8844161001023156
 20
-2.0047792285569122
 30
0.0
 11
9.1103636728608066
 21
-2.0047792285569122
 31
0.0
  0
INSERT
  5
2C0
100
AcDbEntity
100
AcDbBlockReference
  8
muebles-bloques
 62
256
370
-1
  6
ByLayer
  2
Armario 3 cuerpos
 10
20.398204742613366
 20
4.946760335366359
 30
0.0
  0
INSERT
  5
2C1
100
AcDbEntity
100
AcDbBlockReference
  8
muebles-bloques
 62
256
370
-1
  6
ByLayer
  2
Cama matrimonio
 10
20.488276735160778
 20
6.9283441714094742
 30
0.0
  0
INSERT
  5
2C2
100
AcDbEntity
100
AcDbBlockReference
  8
muebles-bloques
 62
256
370
-1
  6
ByLayer
  2
Mesilla noche
 10
20.614377524727161
 20
3.2894356724939353
 30
0.0
  0
INSERT
  5
2C3
100
AcDbEntity
100
AcDbBlockReference
  8
muebles-bloques
 62
256
370
-1
  6
ByLayer
  2
Alfombra
 10
20.614377524727161
 20
2.4607733410577239
 30
0.0
 50
270.0
  0
INSERT
  5
2C4
100
AcDbEntity
100
AcDbBlockReference
  8
muebles-bloques
 62
256
370
-1
  6
ByLayer
  2
Mesa escritorio
 10
25.902729387167231
 20
7.3803929840068125
 30
0.0
 50
90.0
  0
INSERT
  5
2C5
100
AcDbEntity
100
AcDbBlockReference
  8
muebles-bloques
 62
256
370
-1
  6
ByLayer
  2
Silla escritorio
 10
25.658409107382379
 20
6.0096098474258532
 30
0.0
  0
INSERT
  5
2C6
100
AcDbEntity
100
AcDbBlockReference
  8
muebles-bloques
 62
256
370
-1
  6
ByLayer
  2
Silla
 10
25.671919906264492
 20
5.2665159089096845
 30
0.0
  0
INSERT
  5
2C7
100
AcDbEntity
100
AcDbBlockReference
  8
muebles-bloques
 62
256
370
-1
  6
ByLayer
  2
Mesa comedor
 10
25.761991898811907
 20
3.6227020449193716
 30
0.0
  0
INSERT
  5
2C8
100
AcDbEntity
100
AcDbBlockReference
  8
muebles-bloques
 62
256
370
-1
  6
ByLayer
  2
Butaca
 10
25.559329915580218
 20
2.6544281250346673
 30
0.0
  0
INSERT
  5
2C9
100
AcDbEntity
100
AcDbBlockReference
  8
muebles-bloques
 62
256
370
-1
  6
ByLayer
  2
Sofa rinconera
 10
30.406329014537992
 20
7.0004017654474193
 30
0.0
  0
INSERT
  5
2CA
100
AcDbEntity
100
AcDbBlockReference
  8
muebles-bloques
 62
256
370
-1
  6
ByLayer
  2
Aparador
 10
30.265591526182721
 20
5.6493218772362166
 30
0.0
  0
INSERT
  5
2CB
100
AcDbEntity
100
AcDbBlockReference
  8
muebles-bloques
 62
256
370
-1
  6
ByLayer
  2
Frigorifico
 10
31.211347447930574
 20
3.3975220635508503
 30
0.0
  0
INSERT
  5
2CC
100
AcDbEntity
100
AcDbBlockReference
  8
muebles-bloques
 62
256
370
-1
  6
ByLayer
  2
Mesa cocina
 10
30.051544274323572
 20
1.4435624734430448
 30
0.0
  0
INSERT
  5
2CD
100
AcDbEntity
100
AcDbBlockReference
  8
muebles-bloques
 62
256
370
-1
  6
ByLayer
  2
Mesa auxiliar
 10
30.153001535498472
 20
4.2137994960117986
 30
0.0
 50
360.0
 44
1.0
 45
1.0
  0
INSERT
  5
2CE
100
AcDbEntity
100
AcDbBlockReference
  8
muebles-bloques
 62
256
370
-1
  6
ByLayer
  2
Cama 80
 10
20.488276735160778
 20
8.5316256387534484
 30
0.0
 50
270.0
  0
INSERT
  5
2CF
100
AcDbEntity
100
AcDbBlockReference
  8
muebles-bloques
 62
256
370
-1
  6
ByLayer
  2
Televisor
 10
21.051544274323572
 20
1.552513492954156
 30
0.0
  0
INSERT
  5
2D0
100
AcDbEntity
100
AcDbBlockReference
  8
sanitarios
 62
256
370
-1
  6
ByLayer
  2
Lavabo
 10
13.097345765181222
 20
0.2973457651812207
 30
0.0
 50
360.0
 44
1.0
 45
1.0
  0
MTEXT
  5
2D1
100
AcDbEntity
100
AcDbMText
  8
leyenda
 62
256
370
-1
  6
ByLayer
 10
20.051544274323572
 20
7.4880069178874891
 30
0.0
 40
0.2
 41
100.0
 71
1
 72
2
  1
Cama\~matrimonio
  7
standard
 50
0.0
 73
1
 44
1.0
  0
MTEXT
  5
2D2
100
AcDbEntity
100
AcDbMText
  8
leyenda
 62
256
370
-1
  6
ByLayer
 10
19.947844779876291
 20
5.5232210876698105
 30
0.0
 40
0.2
 41
100.0
 71
1
 72
2
  1
Armario\~3\~puertas
  7
standard
 50
0.0
 73
1
 44
1.0
  0
MTEXT
  5
2D3
100
AcDbEntity
100
AcDbMText
  8
leyenda
 62
256
370
-1
  6
ByLayer
 10
19.955555555555556
 20
9.0
 30
0.0
 40
0.2
 41
100.0
 71
1
 72
2
  1
Cama\~individual
  7
standard
 50
0.0
 73
1
 44
1.0
  0
MTEXT
  5
2D4
100
AcDbEntity
100
AcDbMText
  8
leyenda
 62
256
370
-1
  6
ByLayer
 10
19.955555555555556
 20
4.0640548084016999
 30
0.0
 40
0.2
 41
100.0
 71
1
 72
2
  1
Mesilla\~noche
  7
standard
 50
0.0
 73
1
 44
1.0
  0
MTEXT
  5
2D5
100
AcDbEntity
100
AcDbMText
  8
leyenda
 62
256
370
-1
  6
ByLayer
 10
19.955555555555556
 20
2.9471621008137632
 30
0.0
 40
0.2
 41
100.0
 71
1
 72
2
  1
Alfombra
  7
standard
 50
0.0
 73
1
 44
1.0
  0
MTEXT
  5
2D6
100
AcDbEntity
100
AcDbMText
  8
leyenda
 62
256
370
-1
  6
ByLayer
 10
24.551649498956017
 20
8.9555555555555539
 30
0.0
 40
0.2
 41
100.0
 71
1
 72
2
  1
Mesa\~escritorio
  7
standard
 50
0.0
 73
1
 44
1.0
  0
MTEXT
  5
2D7
100
AcDbEntity
100
AcDbMText
  8
leyenda
 62
256
370
-1
  6
ByLayer
 10
24.551649498956017
 20
6.9933648910296409
 30
0.0
 40
0.2
 41
100.0
 71
1
 72
2
  1
Silla\~escritorio
  7
standard
 50
0.0
 73
1
 44
1.0
  0
MTEXT
  5
2D8
100
AcDbEntity
100
AcDbMText
  8
leyenda
 62
256
370
-1
  6
ByLayer
 10
24.551649498956017
 20
5.797096240009294
 30
0.0
 40
0.2
 41
100.0
 71
1
 72
2
  1
Silla\~comedor
  7
standard
 50
0.0
 73
1
 44
1.0
  0
MTEXT
  5
2D9
100
AcDbEntity
100
AcDbMText
  8
leyenda
 62
256
370
-1
  6
ByLayer
 10
24.551649498956017
 20
4.706380705255448
 30
0.0
 40
0.2
 41
100.0
 71
1
 72
2
  1
Mesa\~comedor
  7
standard
 50
0.0
 73
1
 44
1.0
  0
MTEXT
  5
2DA
100
AcDbEntity
100
AcDbMText
  8
leyenda
 62
256
370
-1
  6
ByLayer
 10
24.551649498956017
 20
3.2624140747297146
 30
0.0
 40
0.2
 41
100.0
 71
1
 72
2
  1
Butaca
  7
standard
 50
0.0
 73
1
 44
1.0
  0
MTEXT
  5
2DB
100
AcDbEntity
100
AcDbMText
  8
leyenda
 62
256
370
-1
  6
ByLayer
 10
29.051544274323572
 20
6.4435624734430448
 30
0.0
 40
0.2
 41
100.0
 71
1
 72
2
  1
Aparador
  7
standard
 50
0.0
 73
1
 44
1.0
  0
MTEXT
  5
2DC
100
AcDbEntity
100
AcDbMText
  8
leyenda
 62
256
370
-1
  6
ByLayer
 10
29.051544274323572
 20
3.8929180225616307
 30
0.0
 40
0.2
 41
100.0
 71
1
 72
2
  1
Frigor\U+00edfico
  7
standard
 50
0.0
 73
1
 44
1.0
  0
MTEXT
  5
2DD
100
AcDbEntity
100
AcDbMText
  8
leyenda
 62
256
370
-1
  6
ByLayer
 10
29.051544274323572
 20
2.4435624734430448
 30
0.0
 40
0.2
 41
100.0
 71
1
 72
2
  1
Mesa\~cocina
  7
standard
 50
0.0
 73
1
 44
1.0
  0
MTEXT
  5
2DE
100
AcDbEntity
100
AcDbMText
  8
leyenda
 62
256
370
-1
  6
ByLayer
 10
29.049619626792627
 20
5.1539259182254362
 30
0.0
 40
0.2
 41
100.0
 71
1
 72
2
  1
Mesa\~baja
  7
standard
 50
0.0
 73
1
 44
1.0
  0
MTEXT
  5
2DF
100
AcDbEntity
100
AcDbMText
  8
leyenda
 62
256
370
-1
  6
ByLayer
 10
29.051544274323572
 20
8.9555555555555557
 30
0.0
 40
0.2
 41
100.0
 71
1
 72
2
  1
Sofa\~rinconera
  7
standard
 50
0.0
 73
1
 44
1.0
  0
MTEXT
  5
2E0
100
AcDbEntity
100
AcDbMText
  8
leyenda
 62
256
370
-1
  6
ByLayer
 10
19.976493672308617
 20
1.8953876022880278
 30
0.0
 40
0.2
 41
100.0
 71
1
 72
2
  1
Televisor
  7
standard
 50
0.0
 73
0
 44
1.0
  0
INSERT
  5
2E1
100
AcDbEntity
100
AcDbBlockReference
  8
Cocina
 62
256
370
-1
  6
ByLayer
  2
Fregadero
 10
7.7311565019536861
 20
-2.426569062670358
 30
0.0
  0
ENDSEC
  0
SECTION
  2
OBJECTS
  0
DICTIONARY
  5
C
100
AcDbDictionary
280
0
281
1
  3
ACAD_GROUP
350
D
  3
ACAD_LAYOUT
350
1A
  3
ACAD_MLINESTYLE
350
17
  3
ACAD_PLOTSETTINGS
350
19
  3
ACAD_PLOTSTYLENAME
350
E
  3
AcDbVariableDictionary
350
2E2
  0
DICTIONARY
  5
D
100
AcDbDictionary
280
0
281
1
  0
ACDBDICTIONARYWDFLT
  5
E
100
AcDbDictionary
281
1
  3
Normal
350
F
100
AcDbDictionaryWithDefault
340
F
  0
ACDBPLACEHOLDER
  5
F
  0
DICTIONARY
  5
17
100
AcDbDictionary
280
0
281
1
  3
Standard
350
18
  0
MLINESTYLE
  5
18
100
AcDbMlineStyle
  2
STANDARD
 70
0
  3

 62
256
 51
90.0
 52
90.0
 71
2
 49
0.5
 62
256
  6
BYLAYER
 49
-0.5
 62
256
  6
BYLAYER
  0
DICTIONARY
  5
19
100
AcDbDictionary
280
0
281
1
  0
DICTIONARY
  5
1A
100
AcDbDictionary
281
1
  3
Layout1
350
1E
  3
Layout2
350
26
  3
Model
350
22
  0
LAYOUT
  5
1E
100
AcDbPlotSettings
  1

  2
C:\Program Files\AutoCAD 2002\plotters\DWF ePlot (optimized for plotting).pc3
  4

  6

 40
0.0
 41
0.0
 42
0.0
 43
0.0
 44
0.0
 45
0.0
 46
0.0
 47
0.0
 48
0.0
 49
0.0
140
0.0
141
0.0
142
1.0
143
1.0
 70
688
 72
0
 73
0
 74
5
  7

 75
16
147
1.0
148
0.0
149
0.0
100
AcDbLayout
  1
Layout1
 70
1
 71
1
 10
0.0
 20
0.0
 11
420.0
 21
297.0
 12
0.0
 22
0.0
 32
0.0
 14
100000000000000000000.0
 24
100000000000000000000.0
 34
100000000000000000000.0
 15
-100000000000000000000.0
 25
-100000000000000000000.0
 35
-100000000000000000000.0
146
0.0
 13
0.0
 23
0.0
 33
0.0
 16
1.0
 26
0.0
 36
0.0
 17
0.0
 27
1.0
 37
0.0
 76
0
330
1B
  0
LAYOUT
  5
22
100
AcDbPlotSettings
  1

  2
C:\Program Files\AutoCAD 2002\plotters\DWF ePlot (optimized for plotting).pc3
  4

  6

 40
0.0
 41
0.0
 42
0.0
 43
0.0
 44
0.0
 45
0.0
 46
0.0
 47
0.0
 48
0.0
 49
0.0
140
0.0
141
0.0
142
1.0
143
1.0
 70
1712
 72
0
 73
0
 74
0
  7

 75
0
147
1.0
148
0.0
149
0.0
100
AcDbLayout
  1
Model
 70
1
 71
0
 10
0.0
 20
0.0
 11
12.0
 21
9.0
 12
0.0
 22
0.0
 32
0.0
 14
0.0
 24
0.0
 34
0.0
 15
0.0
 25
0.0
 35
0.0
146
0.0
 13
0.0
 23
0.0
 33
0.0
 16
1.0
 26
0.0
 36
0.0
 17
0.0
 27
1.0
 37
0.0
 76
0
330
1F
  0
LAYOUT
  5
26
100
AcDbPlotSettings
  1

  2
C:\Program Files\AutoCAD 2002\plotters\DWF ePlot (optimized for plotting).pc3
  4

  6

 40
0.0
 41
0.0
 42
0.0
 43
0.0
 44
0.0
 45
0.0
 46
0.0
 47
0.0
 48
0.0
 49
0.0
140
0.0
141
0.0
142
1.0
143
1.0
 70
688
 72
0
 73
0
 74
5
  7

 75
16
147
1.0
148
0.0
149
0.0
100
AcDbLayout
  1
Layout2
 70
1
 71
2
 10
0.0
 20
0.0
 11
12.0
 21
9.0
 12
0.0
 22
0.0
 32
0.0
 14
0.0
 24
0.0
 34
0.0
 15
0.0
 25
0.0
 35
0.0
146
0.0
 13
0.0
 23
0.0
 33
0.0
 16
1.0
 26
0.0
 36
0.0
 17
0.0
 27
1.0
 37
0.0
 76
0
330
23
  0
DICTIONARY
  5
2E2
100
AcDbDictionary
281
1
  3
DIMASSOC
350
2E4
  3
HIDETEXT
350
2E3
  0
DICTIONARYVAR
  5
2E3
100
DictionaryVariables
280
0
  1
2
  0
DICTIONARYVAR
  5
2E4
100
DictionaryVariables
280
0
  1
1
  0
ENDSEC
  0
EOF
