999
dxflib 2.2.0.0
  0
SECTION
  2
HEADER
  9
$ACADVER
  1
AC1015
  9
$HANDSEED
  5
FFFF
  9
$OBSCOLOR
 70
257
  9
$DIMLIM
 70
0
  9
$DIMLUNIT
 70
4
  9
$DIMTIX
 70
0
  9
$AUNITS
 70
0
  9
$QTEXTMODE
 70
0
  9
$USERR1
 40
0.0
  9
$DIMALTU
 70
2
  9
$UCSORGBOTTOM
 10
0.0
 20
0.0
 30
0.0
  9
$USERR2
 40
0.0
  9
$USERR3
 40
0.0
  9
$USERR4
 40
0.0
  9
$LIMMAX
 10
16.535433070866141
 20
11.69291338582677
  9
$USERR5
 40
0.0
  9
$PELEVATION
 40
0.0
  9
$DIMALTZ
 70
0
  9
$DIMADEC
 70
0
  9
$JOINSTYLE
280
0
  9
$DIMATFIT
 70
3
  9
$TILEMODE
 70
1
  9
$PEXTMIN
 10
100000000000000000000.0
 20
100000000000000000000.0
 30
100000000000000000000.0
  9
$TDUSRTIMER
 40
0.0000006597
  9
$DWGCODEPAGE
  3
ANSI_1252
  9
$SORTENTS
280
127
  9
$UCSORTHOVIEW
 70
0
  9
$DIMSOXD
 70
0
  9
$DIMTZIN
 70
0
  9
$SPLINETYPE
 70
6
  9
$DIMLFAC
 40
1.0
  9
$DIMSE1
 70
0
  9
$FILLETRAD
 40
4.9999999999999991
  9
$DIMSE2
 70
0
  9
$PSTYLEMODE
290
1
  9
$TEXTSTYLE
  7
Standard
  9
$DIMTSZ
 40
0.0
  9
$PUCSXDIR
 10
1.0
 20
0.0
 30
0.0
  9
$XCLIPFRAME
290
0
  9
$DIMTXSTY
  7
Standard
  9
$PLIMMAX
 10
12.0
 20
9.0
  9
$DIMTM
 40
0.0
  9
$UCSORG
 10
0.0
 20
0.0
 30
0.0
  9
$DIMTP
 40
0.0
  9
$PSLTSCALE
 70
1
  9
$ANGBASE
 50
0.0
  9
$PUCSYDIR
 10
0.0
 20
1.0
 30
0.0
  9
$EXTNAMES
290
1
  9
$DIMASZ
 40
0.18
  9
$PUCSORTHOVIEW
 70
0
  9
$INSBASE
 10
0.0
 20
0.0
 30
0.0
  9
$UNITMODE
 70
0
  9
$MEASUREMENT
 70
1
  9
$INDEXCTL
280
0
  9
$EXTMAX
 10
403.10318075878581
 20
283.26405844820988
 30
0.00000001
  9
$ELEVATION
 40
0.0
  9
$TDCREATE
 40
2456306.829513866
  9
$DIMDEC
 70
2
  9
$CELTYPE
  6
ByLayer
  9
$MENU
  1
.
  9
$ANGDIR
 70
0
  9
$DIMALTTD
 70
2
  9
$TREEDEPTH
 70
3020
  9
$LTSCALE
 40
1.0
  9
$PROXYGRAPHICS
 70
1
  9
$DIMTMOVE
 70
0
  9
$DIMAZIN
 70
0
  9
$TDUPDATE
 40
2456306.829513866
  9
$DIMTOLJ
 70
1
  9
$DIMCEN
 40
0.09
  9
$DIMTVP
 40
0.0
  9
$TRACEWID
 40
0.05
  9
$CMLSTYLE
  2
Standard
  9
$DISPSILH
 70
0
  9
$DIMSTYLE
  2
Standard
  9
$SKETCHINC
 40
0.1
  9
$FILLMODE
 70
1
  9
$PLINEGEN
 70
0
  9
$DIMLWD
 70
-2
  9
$THICKNESS
 40
0.0
  9
$DIMLWE
 70
-2
  9
$CELTSCALE
 40
1.0
  9
$PUCSORG
 10
0.0
 20
0.0
 30
0.0
  9
$DIMALTTZ
 70
0
  9
$INSUNITS
 70
0
  9
$UCSORGBACK
 10
0.0
 20
0.0
 30
0.0
  9
$PLINEWID
 40
0.0
  9
$PEXTMAX
 10
-100000000000000000000.0
 20
-100000000000000000000.0
 30
-100000000000000000000.0
  9
$DIMJUST
 70
0
  9
$DIMASSOC
280
2
  9
$UCSYDIR
 10
0.0
 20
1.0
 30
0.0
  9
$PUCSORGBACK
 10
0.0
 20
0.0
 30
0.0
  9
$PDSIZE
 40
0.0
  9
$PUCSORGBOTTOM
 10
0.0
 20
0.0
 30
0.0
  9
$DIMUPT
 70
0
  9
$DIMTAD
 70
0
  9
$UCSXDIR
 10
1.0
 20
0.0
 30
0.0
  9
$MAXACTVP
 70
64
  9
$DIMSAH
 70
0
  9
$HALOGAP
280
0
  9
$TDUCREATE
 40
2456306.787847199
  9
$DIMFRAC
 70
0
  9
$USERI1
 70
0
  9
$USERI2
 70
0
  9
$UCSORGRIGHT
 10
0.0
 20
0.0
 30
0.0
  9
$USERI3
 70
0
  9
$CELWEIGHT
370
-1
  9
$LWDISPLAY
290
0
  9
$SKPOLY
 70
0
  9
$USERI4
 70
0
  9
$USERI5
 70
0
  9
$UCSORGTOP
 10
0.0
 20
0.0
 30
0.0
  9
$LIMMIN
 10
0.0
 20
0.0
  9
$ACADMAINTVER
 70
39
  9
$MIRRTEXT
 70
0
  9
$TDUUPDATE
 40
2456306.787847199
  9
$TEXTSIZE
 40
4.9999999999999991
  9
$DIMGAP
 40
0.09
  9
$LUPREC
 70
2
  9
$CECOLOR
 62
40
  9
$DIMSD1
 70
0
  9
$DIMSD2
 70
0
  9
$WORLDVIEW
 70
1
  9
$PUCSORGRIGHT
 10
0.0
 20
0.0
 30
0.0
  9
$PLIMCHECK
 70
0
  9
$DIMTFAC
 40
1.0
  9
$CMLJUST
 70
0
  9
$USRTIMER
 70
1
  9
$SURFU
 70
6
  9
$SURFV
 70
6
  9
$DIMASO
 70
1
  9
$DIMDLE
 40
0.0
  9
$EXTMIN
 10
13.421620652973569
 20
87.574139896876872
 30
-0.00000001
  9
$UCSORGLEFT
 10
0.0
 20
0.0
 30
0.0
  9
$OLESTARTUP
290
0
  9
$PUCSORGFRONT
 10
0.0
 20
0.0
 30
0.0
  9
$DIMDLI
 40
0.38
  9
$LUNITS
 70
2
  9
$DIMCLRD
 70
0
  9
$SHADEDIF
 70
70
  9
$DIMCLRE
 70
0
  9
$SPLINESEGS
 70
8
  9
$PUCSORGLEFT
 10
0.0
 20
0.0
 30
0.0
  9
$INTERSECTIONDISPLAY
280
0
  9
$DIMALTRND
 40
0.0
  9
$DIMRND
 40
0.0
  9
$DIMALT
 70
0
  9
$FINGERPRINTGUID
  2
{B7CA4F4C-76B0-4955-A22C-37211BD08284}
  9
$DIMCLRT
 70
0
  9
$PUCSORGTOP
 10
0.0
 20
0.0
 30
0.0
  9
$OBSLTYPE
280
0
  9
$DIMTOH
 70
1
  9
$UCSORGFRONT
 10
0.0
 20
0.0
 30
0.0
  9
$VISRETAIN
 70
1
  9
$SHADEDGE
 70
3
  9
$DIMTOL
 70
0
  9
$SURFTYPE
 70
6
  9
$VERSIONGUID
  2
{9A0018E8-08D4-463C-8C4D-51E4E2AE3DB8}
  9
$CHAMFERA
 40
4.9999999999999991
  9
$SURFTAB1
 70
6
  9
$CHAMFERB
 40
4.9999999999999991
  9
$SURFTAB2
 70
6
  9
$CHAMFERC
 40
0.0
  9
$AUPREC
 70
2
  9
$CHAMFERD
 40
0.0
  9
$DIMTDEC
 70
4
  9
$PDMODE
 70
0
  9
$SPLFRAME
 70
0
  9
$PLIMMIN
 10
0.0
 20
0.0
  9
$XEDIT
290
1
  9
$DIMDSEP
 70
46
  9
$LIMCHECK
 70
0
  9
$PINSBASE
 10
0.0
 20
0.0
 30
0.0
  9
$ORTHOMODE
 70
0
  9
$PSVPSCALE
 40
0.0
  9
$CLAYER
  8
0
  9
$DIMSHO
 70
1
  9
$DIMTOFL
 70
0
  9
$DIMTXT
 40
0.1574803149606299
  9
$DIMEXE
 40
0.18
  9
$TDINDWG
 40
0.0000006597
  9
$REGENMODE
 70
1
  9
$ATTMODE
 70
1
  9
$CMLSCALE
 40
1.0
  9
$DIMTIH
 70
1
  9
$DIMZIN
 70
0
  9
$CEPSNTYPE
380
0
  9
$HIDETEXT
280
1
  9
$DIMSCALE
 40
1.0
  9
$INTERSECTIONCOLOR
 70
257
  9
$DIMALTD
 70
2
  9
$DIMAUNIT
 70
1
  9
$DIMALTF
 40
25.399999999999999
  9
$DIMEXO
 40
0.0625
  9
$ENDCAPS
280
0
  9
$CLAYER
  8
PRACTICA
  0
ENDSEC
  0
SECTION
  2
TABLES
  0
TABLE
  2
VPORT
  5
8
100
AcDbSymbolTable
 70
1
  0
VPORT
  5
30
100
AcDbSymbolTableRecord
100
AcDbViewportTableRecord
  2
*Active
 70
0
 10
0.0
 20
0.0
 11
1.0
 21
1.0
 12
286.30555555555549
 22
148.5
 13
0.0
 23
0.0
 14
10.0
 24
10.0
 15
10.0
 25
10.0
 16
0.0
 26
0.0
 36
1.0
 17
0.0
 27
0.0
 37
0.0
 40
297.0
 41
1.92798353909465
 42
50.0
 43
0.0
 44
0.0
 50
0.0
 51
0.0
 71
0
 72
100
 73
1
 74
3
 75
1
 76
1
 77
0
 78
0
281
0
 65
1
110
0.0
120
0.0
130
0.0
111
1.0
121
0.0
131
0.0
112
0.0
122
1.0
132
0.0
 79
0
146
0.0
  0
ENDTAB
  0
TABLE
  2
LTYPE
  5
5
100
AcDbSymbolTable
 70
21
  0
LTYPE
  5
14
100
AcDbSymbolTableRecord
100
AcDbLinetypeTableRecord
  2
ByBlock
 70
0
  3

 72
65
 73
0
 40
0.0
  0
LTYPE
  5
15
100
AcDbSymbolTableRecord
100
AcDbLinetypeTableRecord
  2
ByLayer
 70
0
  3

 72
65
 73
0
 40
0.0
  0
LTYPE
  5
16
100
AcDbSymbolTableRecord
100
AcDbLinetypeTableRecord
  2
CONTINUOUS
 70
0
  3
Solid line
 72
65
 73
0
 40
0.0
  0
LTYPE
  5
31
100
AcDbSymbolTableRecord
100
AcDbLinetypeTableRecord
  2
DOT
 70
0
  3
Dot . . . . . . . . . . . . . . . . . . . . . .
 72
65
 73
2
 40
6.3499999999999996
 49
0.0
 74
0
 49
-6.3499999999999996
 74
0
  0
LTYPE
  5
32
100
AcDbSymbolTableRecord
100
AcDbLinetypeTableRecord
  2
DOT2
 70
0
  3
Dot (.5x) .....................................
 72
65
 73
2
 40
3.1749999999999998
 49
0.0
 74
0
 49
-3.1749999999999998
 74
0
  0
LTYPE
  5
33
100
AcDbSymbolTableRecord
100
AcDbLinetypeTableRecord
  2
DOTX2
 70
0
  3
Dot (2x) .  .  .  .  .  .  .  .  .  .  .  .  .
 72
65
 73
2
 40
12.699999999999999
 49
0.0
 74
0
 49
-12.699999999999999
 74
0
  0
LTYPE
  5
34
100
AcDbSymbolTableRecord
100
AcDbLinetypeTableRecord
  2
DASHED
 70
0
  3
Dashed __ __ __ __ __ __ __ __ __ __ __ __ __ _
 72
65
 73
2
 40
19.050000000000001
 49
12.699999999999999
 74
0
 49
-6.3499999999999996
 74
0
  0
LTYPE
  5
35
100
AcDbSymbolTableRecord
100
AcDbLinetypeTableRecord
  2
DASHED2
 70
0
  3
Dashed (.5x) _ _ _ _ _ _ _ _ _ _ _ _ _ _ _ _ _
 72
65
 73
2
 40
9.5250000000000004
 49
6.3499999999999996
 74
0
 49
-3.1749999999999998
 74
0
  0
LTYPE
  5
36
100
AcDbSymbolTableRecord
100
AcDbLinetypeTableRecord
  2
DASHEDX2
 70
0
  3
Dashed (2x) ____  ____  ____  ____  ____  ___
 72
65
 73
2
 40
38.100000000000001
 49
25.399999999999999
 74
0
 49
-12.699999999999999
 74
0
  0
LTYPE
  5
37
100
AcDbSymbolTableRecord
100
AcDbLinetypeTableRecord
  2
DASHDOT
 70
0
  3
Dash dot __ . __ . __ . __ . __ . __ . __ . __
 72
65
 73
4
 40
25.399999999999999
 49
12.699999999999999
 74
0
 49
-6.3499999999999996
 74
0
 49
0.0
 74
0
 49
-6.3499999999999996
 74
0
  0
LTYPE
  5
38
100
AcDbSymbolTableRecord
100
AcDbLinetypeTableRecord
  2
DASHDOT2
 70
0
  3
Dash dot (.5x) _._._._._._._._._._._._._._._.
 72
65
 73
4
 40
12.699999999999999
 49
6.3499999999999996
 74
0
 49
-3.1749999999999998
 74
0
 49
0.0
 74
0
 49
-3.1749999999999998
 74
0
  0
LTYPE
  5
39
100
AcDbSymbolTableRecord
100
AcDbLinetypeTableRecord
  2
DASHDOTX2
 70
0
  3
Dash dot (2x) ____  .  ____  .  ____  .  ___
 72
65
 73
4
 40
50.799999999999997
 49
25.399999999999999
 74
0
 49
-12.699999999999999
 74
0
 49
0.0
 74
0
 49
-12.699999999999999
 74
0
  0
LTYPE
  5
3A
100
AcDbSymbolTableRecord
100
AcDbLinetypeTableRecord
  2
DIVIDE
 70
0
  3
Divide ____ . . ____ . . ____ . . ____ . . ____
 72
65
 73
6
 40
31.75
 49
12.699999999999999
 74
0
 49
-6.3499999999999996
 74
0
 49
0.0
 74
0
 49
-6.3499999999999996
 74
0
 49
0.0
 74
0
 49
-6.3499999999999996
 74
0
  0
LTYPE
  5
3B
100
AcDbSymbolTableRecord
100
AcDbLinetypeTableRecord
  2
DIVIDE2
 70
0
  3
Divide (.5x) __..__..__..__..__..__..__..__.._
 72
65
 73
6
 40
15.875
 49
6.3499999999999996
 74
0
 49
-3.1749999999999998
 74
0
 49
0.0
 74
0
 49
-3.1749999999999998
 74
0
 49
0.0
 74
0
 49
-3.1749999999999998
 74
0
  0
LTYPE
  5
3C
100
AcDbSymbolTableRecord
100
AcDbLinetypeTableRecord
  2
DIVIDEX2
 70
0
  3
Divide (2x) ________  .  .  ________  .  .  _
 72
65
 73
6
 40
63.5
 49
25.399999999999999
 74
0
 49
-12.699999999999999
 74
0
 49
0.0
 74
0
 49
-12.699999999999999
 74
0
 49
0.0
 74
0
 49
-12.699999999999999
 74
0
  0
LTYPE
  5
3D
100
AcDbSymbolTableRecord
100
AcDbLinetypeTableRecord
  2
CENTER
 70
0
  3
Center ____ _ ____ _ ____ _ ____ _ ____ _ ____
 72
65
 73
4
 40
50.799999999999997
 49
31.75
 74
0
 49
-6.3499999999999996
 74
0
 49
6.3499999999999996
 74
0
 49
-6.3499999999999996
 74
0
  0
LTYPE
  5
3E
100
AcDbSymbolTableRecord
100
AcDbLinetypeTableRecord
  2
CENTER2
 70
0
  3
Center (.5x) ___ _ ___ _ ___ _ ___ _ ___ _ ___
 72
65
 73
4
 40
28.574999999999999
 49
19.050000000000001
 74
0
 49
-3.1749999999999998
 74
0
 49
3.1749999999999998
 74
0
 49
-3.1749999999999998
 74
0
  0
LTYPE
  5
3F
100
AcDbSymbolTableRecord
100
AcDbLinetypeTableRecord
  2
CENTERX2
 70
0
  3
Center (2x) ________  __  ________  __  _____
 72
65
 73
4
 40
101.59999999999999
 49
63.5
 74
0
 49
-12.699999999999999
 74
0
 49
12.699999999999999
 74
0
 49
-12.699999999999999
 74
0
  0
LTYPE
  5
40
100
AcDbSymbolTableRecord
100
AcDbLinetypeTableRecord
  2
BORDER
 70
0
  3
Border __ __ . __ __ . __ __ . __ __ . __ __ .
 72
65
 73
6
 40
44.450000000000003
 49
12.699999999999999
 74
0
 49
-6.3499999999999996
 74
0
 49
12.699999999999999
 74
0
 49
-6.3499999999999996
 74
0
 49
0.0
 74
0
 49
-6.3499999999999996
 74
0
  0
LTYPE
  5
41
100
AcDbSymbolTableRecord
100
AcDbLinetypeTableRecord
  2
BORDER2
 70
0
  3
Border (.5x) __.__.__.__.__.__.__.__.__.__.__.
 72
65
 73
6
 40
22.225000000000001
 49
6.3499999999999996
 74
0
 49
-3.1749999999999998
 74
0
 49
6.3499999999999996
 74
0
 49
-3.1749999999999998
 74
0
 49
0.0
 74
0
 49
-3.1749999999999998
 74
0
  0
LTYPE
  5
42
100
AcDbSymbolTableRecord
100
AcDbLinetypeTableRecord
  2
BORDERX2
 70
0
  3
Border (2x) ____  ____  .  ____  ____  .  ___
 72
65
 73
6
 40
88.900000000000006
 49
25.399999999999999
 74
0
 49
-12.699999999999999
 74
0
 49
25.399999999999999
 74
0
 49
-12.699999999999999
 74
0
 49
0.0
 74
0
 49
-12.699999999999999
 74
0
  0
ENDTAB
  0
TABLE
  2
LAYER
  5
2
100
AcDbSymbolTable
 70
7
  0
LAYER
  5
10
100
AcDbSymbolTableRecord
100
AcDbLayerTableRecord
  2
0
 70
0
 62
7
420
16777215
  6
CONTINUOUS
370
-3
390
F
  0
LAYER
  5
43
100
AcDbSymbolTableRecord
100
AcDbLayerTableRecord
  2
1
 70
0
 62
7
420
16777215
  6
CONTINUOUS
370
-3
390
F
  0
LAYER
  5
44
100
AcDbSymbolTableRecord
100
AcDbLayerTableRecord
  2
2
 70
0
 62
7
420
16777215
  6
CONTINUOUS
370
-3
390
F
  0
LAYER
  5
45
100
AcDbSymbolTableRecord
100
AcDbLayerTableRecord
  2
3
 70
0
 62
7
420
16777215
  6
CONTINUOUS
370
-3
390
F
  0
LAYER
  5
46
100
AcDbSymbolTableRecord
100
AcDbLayerTableRecord
  2
4
 70
0
 62
7
420
16777215
  6
CONTINUOUS
370
-3
390
F
  0
LAYER
  5
47
100
AcDbSymbolTableRecord
100
AcDbLayerTableRecord
  2
5-SOLUCIÓN
 70
0
 62
7
420
16777215
  6
CONTINUOUS
370
-3
390
F
  0
LAYER
  5
48
100
AcDbSymbolTableRecord
100
AcDbLayerTableRecord
  2
PRACTICA
 70
0
 62
7
420
0
  6
CONTINUOUS
370
0
390
F
  0
ENDTAB
  0
TABLE
  2
STYLE
  5
3
100
AcDbSymbolTable
 70
1
  0
STYLE
  5
11
100
AcDbSymbolTableRecord
100
AcDbTextStyleTableRecord
  2
Standard
 70
0
 40
0.0
 41
0.75
 50
0.0
 71
0
 42
2.5
  3
txt
  4

  0
ENDTAB
  0
TABLE
  2
VIEW
  5
6
100
AcDbSymbolTable
 70
0
  0
ENDTAB
  0
TABLE
  2
UCS
  5
7
100
AcDbSymbolTable
 70
0
  0
ENDTAB
  0
TABLE
  2
APPID
  5
9
100
AcDbSymbolTable
 70
1
  0
APPID
  5
12
100
AcDbSymbolTableRecord
100
AcDbRegAppTableRecord
  2
ACAD
 70
0
  0
ENDTAB
  0
TABLE
  2
DIMSTYLE
  5
A
100
AcDbSymbolTable
 70
1
100
AcDbDimStyleTable
 71
0
  0
DIMSTYLE
105
27
100
AcDbSymbolTableRecord
100
AcDbDimStyleTableRecord
  2
Standard
 41
0.18
 42
0.0625
 43
3.75
 44
0.18
 70
0
 73
0
 74
0
 77
1
 78
8
140
0.1574803149606299
141
2.5
143
0.03937007874016
147
0.09
171
3
172
1
271
2
272
2
274
3
278
44
283
0
284
8
340
11
  0
ENDTAB
  0
TABLE
  2
BLOCK_RECORD
  5
1
100
AcDbSymbolTable
 70
1
  0
BLOCK_RECORD
  5
1F
100
AcDbSymbolTableRecord
100
AcDbBlockTableRecord
  2
*Model_Space
340
22
  0
BLOCK_RECORD
  5
1B
100
AcDbSymbolTableRecord
100
AcDbBlockTableRecord
  2
*Paper_Space
340
1E
  0
BLOCK_RECORD
  5
23
100
AcDbSymbolTableRecord
100
AcDbBlockTableRecord
  2
*Paper_Space0
340
26
  0
ENDTAB
  0
ENDSEC
  0
SECTION
  2
BLOCKS
  0
BLOCK
  5
20
100
AcDbEntity
  8
0
100
AcDbBlockBegin
  2
*Model_Space
 70
0
 10
0.0
 20
0.0
 30
0.0
  3
*Model_Space
  1

  0
ENDBLK
  5
21
100
AcDbEntity
  8
0
100
AcDbBlockEnd
  0
BLOCK
  5
1C
100
AcDbEntity
 67
1
  8
0
100
AcDbBlockBegin
  2
*Paper_Space
 70
0
 10
0.0
 20
0.0
 30
0.0
  3
*Paper_Space
  1

  0
ENDBLK
  5
1D
100
AcDbEntity
 67
1
  8
0
100
AcDbBlockEnd
  0
BLOCK
  5
24
100
AcDbEntity
  8
0
100
AcDbBlockBegin
  2
*Paper_Space0
 70
0
 10
0.0
 20
0.0
 30
0.0
  3
*Paper_Space0
  1

  0
ENDBLK
  5
25
100
AcDbEntity
  8
0
100
AcDbBlockEnd
  0
ENDSEC
  0
SECTION
  2
ENTITIES
  0
MTEXT
  5
49
100
AcDbEntity
100
AcDbMText
  8
1
 62
7
420
16777215
370
-1
  6
CONTINUOUS
 10
13.421620652973569
 20
210.53241780895311
 30
0.0
 40
3.5
 41
100.0
 71
1
 72
2
  1
Dibujamos\~la\~traza\~vertical\~P'\~de\~un\~plano\~auxiliar\~de\~perfil\~P.
  7
ARIAL
 50
0.0
 73
0
 44
1.0
  0
MTEXT
  5
4A
100
AcDbEntity
100
AcDbMText
  8
2
 62
7
420
16777215
370
-1
  6
CONTINUOUS
 10
13.421620652973569
 20
188.2592841932354
 30
0.0
 40
3.5
 41
100.0
 71
1
 72
2
  1
Determinamos\~la\~proyecci\U+00f3n\~de\~perfil\~(a'')\~del\~punto\~dado\~A.
  7
ARIAL
 50
0.0
 73
0
 44
1.0
  0
MTEXT
  5
4B
100
AcDbEntity
100
AcDbMText
  8
3
 62
7
420
16777215
370
-1
  6
CONTINUOUS
 10
13.421620652973569
 20
160.45466880862
 30
0.0
 40
3.5
 41
100.0
 71
1
 72
2
  1
Idem\~de\~la\~traza\~horizontal\~dada\~Q,\~para\~ello\~tomamos\~un\~punto
  7
ARIAL
 50
0.0
 73
0
 44
1.0
  0
MTEXT
  5
4C
100
AcDbEntity
100
AcDbMText
  8
3
 62
7
420
16777215
370
-1
  6
CONTINUOUS
 10
13.42162065297358
 20
155.20466880862
 30
0.0
 40
3.5
 41
100.0
 71
1
 72
2
  1
traza\~H\~cualquiera.
  7
ARIAL
 50
0.0
 73
0
 44
1.0
  0
MTEXT
  5
4D
100
AcDbEntity
100
AcDbMText
  8
4
 62
7
420
16777215
370
-1
  6
CONTINUOUS
 10
13.421620652973569
 20
130.85620727015839
 30
0.0
 40
3.5
 41
100.0
 71
1
 72
2
  1
Uniendo\~mediante\~una\~recta\~los\~puntos\~determinados\~anteriormente
  7
ARIAL
 50
0.0
 73
0
 44
1.0
  0
MTEXT
  5
4E
100
AcDbEntity
100
AcDbMText
  8
4
 62
7
420
16777215
370
-1
  6
CONTINUOUS
 10
13.42162065297358
 20
125.60620727015839
 30
0.0
 40
3.5
 41
100.0
 71
1
 72
2
  1
(a''\~y\~h'')\~determinamos\~el\~perfil\~del\~plano\~Q\~(Q'').
  7
ARIAL
 50
0.0
 73
0
 44
1.0
  0
MTEXT
  5
4F
100
AcDbEntity
100
AcDbMText
  8
4
 62
7
420
16777215
370
-1
  6
CONTINUOUS
 10
13.421620652973569
 20
102.6031303470815
 30
0.0
 40
3.5
 41
100.0
 71
1
 72
2
  1
La\~intersecci\U+00f3n\~de\~la\~traza\~vertical\~(P')\~del\~auxiliar\~con\~el\~perfil\~del\~plano
  7
ARIAL
 50
0.0
 73
0
 44
1.0
  0
MTEXT
  5
50
100
AcDbEntity
100
AcDbMText
  8
4
 62
7
420
16777215
370
-1
  6
CONTINUOUS
 10
13.42162065297358
 20
97.353130347081517
 30
0.0
 40
3.5
 41
100.0
 71
1
 72
2
  1
Q\~(Q'')\~determina\~el\~perfil\~de\~un\~punto\~traza\~vertical\~(v''),\~por\~\U+00e9l\~pasar\U+00e1\~la
  7
ARIAL
 50
0.0
 73
0
 44
1.0
  0
MTEXT
  5
51
100
AcDbEntity
100
AcDbMText
  8
4
 62
7
420
16777215
370
-1
  6
CONTINUOUS
 10
13.42162065297358
 20
92.103130347081517
 30
0.0
 40
3.5
 41
100.0
 71
1
 72
2
  1
traza\~vertical\~del\~plano\~Q\~(Q')\~paralela\~a\~la\~LT.
  7
ARIAL
 50
0.0
 73
0
 44
1.0
  0
MTEXT
  5
52
100
AcDbEntity
100
AcDbMText
  8
0
 62
7
420
16777215
370
-1
  6
CONTINUOUS
 10
14.055808687161649
 20
228.93251998667151
 30
0.0
 40
3.5
 41
100.0
 71
1
 72
2
  1
Dada\~la\~traza\~horizontal\~Q\~del\~plano\~y\~las\~proyecciones\~del\~punto\~A.....
  7
ARIAL
 50
0.0
 73
0
 44
1.0
  0
MTEXT
  5
53
100
AcDbEntity
100
AcDbMText
  8
0
 62
7
420
16777215
370
-1
  6
CONTINUOUS
 10
217.2888856102384
 20
283.26405844820988
 30
0.0
 40
4.9999999999999991
 41
100.0
 71
2
 72
2
  1
Determinar\~la\~traza\~vertical\~de\~un\~plano\~paralelo\~a\~la\~LT.
  7
ARIAL
 50
0.0
 73
0
 44
1.0
  0
MTEXT
  5
54
100
AcDbEntity
100
AcDbMText
  8
0
 62
7
420
16777215
370
-1
  6
CONTINUOUS
 10
198.24044252677331
 20
275.76405844820988
 30
0.0
 40
4.9999999999999991
 41
100.0
 71
2
 72
2
  1
Datos:\~proyecciones\~de\~uno\~de\~sus\~puntos\~(A)\~y\~la\~traza\~horizontal\~Q.
  7
ARIAL
 50
0.0
 73
0
 44
1.0
  0
LINE
  5
55
100
AcDbEntity
100
AcDbLine
  8
5-SOLUCIÓN
 62
142
420
31909
370
-1
  6
DASHED2
 10
393.99742963029502
 20
165.80008367641261
 30
0.0
 11
254.98276590776459
 21
165.80008367641241
 31
0.0
  0
MTEXT
  5
56
100
AcDbEntity
100
AcDbMText
  8
1
 62
92
420
42240
370
-1
  6
CONTINUOUS
 10
257.04897649958559
 20
205.92115002827759
 30
0.0
 40
4.9999999999999991
 41
100.0
 71
7
 72
2
  1
Q'
  7
ARIAL
 50
0.0
 73
0
 44
1.0
  0
LINE
  5
57
100
AcDbEntity
100
AcDbLine
  8
2
 62
8
420
8355711
370
-1
  6
DASHED2
 10
360.75266892019278
 20
150.25805078863829
 30
0.0
 11
360.75266892019278
 21
103.6303521666329
 31
0.0
  0
MTEXT
  5
58
100
AcDbEntity
100
AcDbMText
  8
2
 62
40
420
16760576
370
-1
  6
CONTINUOUS
 10
366.15950967464352
 20
151.2691647123813
 30
0.0
 40
4.9999999999999991
 41
100.0
 71
7
 72
2
  1
a''
  7
ARIAL
 50
0.0
 73
0
 44
1.0
  0
LINE
  5
59
100
AcDbEntity
100
AcDbLine
  8
2
 62
40
420
16760576
370
-1
  6
ByBlock
 10
357.87359381306737
 20
147.378975681513
 30
0.0
 11
363.6317440273184
 21
153.13712589576409
 31
0.0
  0
LINE
  5
5A
100
AcDbEntity
100
AcDbLine
  8
2
 62
40
420
16760576
370
-1
  6
ByBlock
 10
363.6317440273184
 20
147.378975681513
 30
0.0
 11
357.87359381306737
 21
153.13712589576409
 31
0.0
  0
LINE
  5
5B
100
AcDbEntity
100
AcDbLine
  8
2
 62
7
420
16777215
370
-1
  6
DASHED2
 10
312.06292667406763
 20
150.25805078863829
 30
0.0
 11
393.99742963029502
 21
150.25805078863829
 31
0.0
  0
LINE
  5
5C
100
AcDbEntity
100
AcDbLine
  8
4
 62
40
420
16760576
370
-1
  6
CONTINUOUS
 10
331.82769812051532
 20
103.6303521666329
 30
0.0
 11
418.53474528625537
 21
243.4040477616243
 31
0.0
  0
MTEXT
  5
5D
100
AcDbEntity
100
AcDbMText
  8
4
 62
40
420
16760576
370
-1
  6
CONTINUOUS
 10
420.88703644605221
 20
242.6005870048935
 30
0.0
 40
4.9999999999999991
 41
100.0
 71
7
 72
2
  1
Q''
  7
ARIAL
 50
0.0
 73
0
 44
1.0
  0
LINE
  5
5E
100
AcDbEntity
100
AcDbLine
  8
1
 62
92
420
42240
370
-1
  6
CONTINUOUS
 10
393.99742963029502
 20
245.54147167416679
 30
0.0
 11
393.99742963029502
 21
103.6303521666329
 31
0.0
  0
ARC
  5
5F
100
AcDbEntity
  8
2
 62
7
420
16777215
370
-1
  6
DASHED2
100
AcDbCircle
 10
393.99742963029502
 20
103.6303521666329
 30
0.0
 40
33.244760710102163
100
AcDbArc
 50
90.0
 51
180.0
  0
LINE
  5
60
100
AcDbEntity
100
AcDbLine
  8
2
 62
7
420
16777215
370
-1
  6
DASHED2
 10
312.06292667406763
 20
136.8751128767351
 30
0.0
 11
393.99742963029502
 21
136.8751128767351
 31
0.0
  0
MTEXT
  5
61
100
AcDbEntity
100
AcDbMText
  8
5-SOLUCIÓN
 62
142
420
31909
370
-1
  6
CONTINUOUS
 10
302.26053555892901
 20
132.85453802347189
 30
0.0
 40
4.9999999999999991
 41
100.0
 71
7
 72
2
  1
a
  7
ARIAL
 50
0.0
 73
0
 44
1.0
  0
LINE
  5
62
100
AcDbEntity
100
AcDbLine
  8
5-SOLUCIÓN
 62
142
420
31909
370
-1
  6
ByBlock
 10
309.18385156694222
 20
133.99603776960959
 30
0.0
 11
314.9420017811932
 21
139.75418798386059
 31
0.0
  0
LINE
  5
63
100
AcDbEntity
100
AcDbLine
  8
5-SOLUCIÓN
 62
142
420
31909
370
-1
  6
ByBlock
 10
314.9420017811932
 20
133.99603776960959
 30
0.0
 11
309.18385156694222
 21
139.75418798386059
 31
0.0
  0
ARC
  5
64
100
AcDbEntity
  8
3
 62
7
420
16777215
370
-1
  6
DASHED2
100
AcDbCircle
 10
393.99742963029502
 20
103.6303521666329
 30
0.0
 40
62.169731509779673
100
AcDbArc
 50
90.0
 51
180.0
  0
MTEXT
  5
65
100
AcDbEntity
100
AcDbMText
  8
5-SOLUCIÓN
 62
142
420
31909
370
-1
  6
CONTINUOUS
 10
256.38740196076776
 20
169.91940957759999
 30
0.0
 40
4.9999999999999991
 41
100.0
 71
7
 72
2
  1
Q
  7
ARIAL
 50
0.0
 73
0
 44
1.0
  0
LINE
  5
66
100
AcDbEntity
100
AcDbLine
  8
1
 62
92
420
42240
370
-1
  6
CONTINUOUS
 10
254.98276590776459
 20
203.8493471770382
 30
0.0
 11
393.99742963029502
 21
203.8493471770382
 31
0.0
  0
MTEXT
  5
67
100
AcDbEntity
100
AcDbMText
  8
1
 62
92
420
42240
370
-1
  6
CONTINUOUS
 10
386.76948946528842
 20
247.11781615525541
 30
0.0
 40
4.9999999999999991
 41
100.0
 71
7
 72
2
  1
P'
  7
ARIAL
 50
0.0
 73
0
 44
1.0
  0
LINE
  5
68
100
AcDbEntity
100
AcDbLine
  8
3
 62
8
420
8355711
370
-1
  6
DASHED2
 10
272.56681459566079
 20
165.80008367641241
 30
0.0
 11
272.56681459566079
 21
103.6303521666329
 31
0.0
  0
MTEXT
  5
69
100
AcDbEntity
100
AcDbMText
  8
3
 62
142
420
31909
370
-1
  6
CONTINUOUS
 10
271.2161986284512
 20
170.9825528731165
 30
0.0
 40
4.9999999999999991
 41
100.0
 71
7
 72
2
  1
h
  7
ARIAL
 50
0.0
 73
0
 44
1.0
  0
LINE
  5
6A
100
AcDbEntity
100
AcDbLine
  8
3
 62
142
420
31909
370
-1
  6
ByBlock
 10
269.68773948853539
 20
162.92100856928701
 30
0.0
 11
275.44588970278642
 21
168.67915878353801
 31
0.0
  0
LINE
  5
6B
100
AcDbEntity
100
AcDbLine
  8
3
 62
142
420
31909
370
-1
  6
ByBlock
 10
275.44588970278642
 20
162.92100856928701
 30
0.0
 11
269.68773948853539
 21
168.67915878353801
 31
0.0
  0
MTEXT
  5
6C
100
AcDbEntity
100
AcDbMText
  8
3
 62
92
420
42240
370
-1
  6
CONTINUOUS
 10
263.95776503886077
 20
105.9920996147992
 30
0.0
 40
4.9999999999999991
 41
100.0
 71
7
 72
2
  1
h'
  7
ARIAL
 50
0.0
 73
0
 44
1.0
  0
LINE
  5
6D
100
AcDbEntity
100
AcDbLine
  8
3
 62
92
420
42240
370
-1
  6
ByBlock
 10
269.6877394885355
 20
100.7512770595073
 30
0.0
 11
275.4458897027863
 21
106.5094272737584
 31
0.0
  0
LINE
  5
6E
100
AcDbEntity
100
AcDbLine
  8
3
 62
92
420
42240
370
-1
  6
ByBlock
 10
275.4458897027863
 20
100.7512770595073
 30
0.0
 11
269.6877394885355
 21
106.5094272737584
 31
0.0
  0
LINE
  5
6F
100
AcDbEntity
100
AcDbLine
  8
3
 62
92
420
42240
370
-1
  6
ByBlock
 10
269.6877394885355
 20
100.7512770595076
 30
0.0
 11
275.44588970278642
 21
106.5094272737586
 31
0.0
  0
LINE
  5
70
100
AcDbEntity
100
AcDbLine
  8
3
 62
92
420
42240
370
-1
  6
ByBlock
 10
275.44588970278642
 20
100.7512770595076
 30
0.0
 11
269.6877394885355
 21
106.5094272737586
 31
0.0
  0
MTEXT
  5
71
100
AcDbEntity
100
AcDbMText
  8
3
 62
40
420
16760576
370
-1
  6
CONTINUOUS
 10
321.83352638318422
 20
105.39273499241401
 30
0.0
 40
4.9999999999999991
 41
100.0
 71
7
 72
2
  1
h''
  7
ARIAL
 50
0.0
 73
0
 44
1.0
  0
LINE
  5
72
100
AcDbEntity
100
AcDbLine
  8
3
 62
40
420
16760576
370
-1
  6
ByBlock
 10
328.94862301338992
 20
100.7512770595076
 30
0.0
 11
334.70677322764089
 21
106.5094272737586
 31
0.0
  0
LINE
  5
73
100
AcDbEntity
100
AcDbLine
  8
3
 62
40
420
16760576
370
-1
  6
ByBlock
 10
334.70677322764089
 20
100.7512770595076
 30
0.0
 11
328.94862301338992
 21
106.5094272737586
 31
0.0
  0
MTEXT
  5
74
100
AcDbEntity
100
AcDbMText
  8
5-SOLUCIÓN
 62
40
420
16760576
370
-1
  6
CONTINUOUS
 10
398.69273904785399
 20
201.80122283033279
 30
0.0
 40
4.9999999999999991
 41
100.0
 71
7
 72
2
  1
v''
  7
ARIAL
 50
0.0
 73
0
 44
1.0
  0
LINE
  5
75
100
AcDbEntity
100
AcDbLine
  8
5-SOLUCIÓN
 62
40
420
16760576
370
-1
  6
ByBlock
 10
391.11835452316961
 20
200.9702720699126
 30
0.0
 11
396.87650473742048
 21
206.72842228416371
 31
0.0
  0
LINE
  5
76
100
AcDbEntity
100
AcDbLine
  8
5-SOLUCIÓN
 62
40
420
16760576
370
-1
  6
ByBlock
 10
396.87650473742048
 20
200.9702720699126
 30
0.0
 11
391.11835452316961
 21
206.72842228416371
 31
0.0
  0
LINE
  5
77
100
AcDbEntity
100
AcDbLine
  8
5-SOLUCIÓN
 62
40
420
16760576
370
-1
  6
ByBlock
 10
391.11835452316961
 20
200.97027206991291
 30
0.0
 11
396.87650473742048
 21
206.728422284164
 31
0.0
  0
LINE
  5
78
100
AcDbEntity
100
AcDbLine
  8
5-SOLUCIÓN
 62
40
420
16760576
370
-1
  6
ByBlock
 10
396.87650473742048
 20
200.97027206991291
 30
0.0
 11
391.11835452316961
 21
206.728422284164
 31
0.0
  0
LINE
  5
79
100
AcDbEntity
100
AcDbLine
  8
0
 62
7
420
16777215
370
-1
  6
CONTINUOUS
 10
240.58230769230781
 20
103.6303521666329
 30
0.0
 11
443.10318075878581
 21
103.6303521666329
 31
0.0
  0
LINE
  5
7A
100
AcDbEntity
100
AcDbLine
  8
0
 62
7
420
16777215
370
-1
  6
CONTINUOUS
 10
429.71468333590008
 20
98.6099860823618
 30
0.0
 11
443.10318075878581
 21
98.6099860823618
 31
0.0
  0
LINE
  5
7B
100
AcDbEntity
100
AcDbLine
  8
0
 62
7
420
16777215
370
-1
  6
CONTINUOUS
 10
240.58230769230781
 20
98.6099860823618
 30
0.0
 11
253.97080511519351
 21
98.6099860823618
 31
0.0
  0
LINE
  5
7C
100
AcDbEntity
100
AcDbLine
  8
0
 62
8
420
8355711
370
-1
  6
DASHED2
 10
312.06292667406763
 20
150.25805078863829
 30
0.0
 11
312.06292667406763
 21
103.6303521666329
 31
0.0
  0
MTEXT
  5
7D
100
AcDbEntity
100
AcDbMText
  8
0
 62
92
420
42240
370
-1
  6
CONTINUOUS
 10
309.46402833357268
 20
156.00050829597629
 30
0.0
 40
4.9999999999999991
 41
100.0
 71
7
 72
2
  1
a'
  7
ARIAL
 50
0.0
 73
0
 44
1.0
  0
LINE
  5
7E
100
AcDbEntity
100
AcDbLine
  8
0
 62
92
420
42240
370
-1
  6
ByBlock
 10
309.18385156694228
 20
147.37897568151271
 30
0.0
 11
314.9420017811932
 21
153.13712589576389
 31
0.0
  0
LINE
  5
7F
100
AcDbEntity
100
AcDbLine
  8
0
 62
92
420
42240
370
-1
  6
ByBlock
 10
314.9420017811932
 20
147.37897568151271
 30
0.0
 11
309.18385156694228
 21
153.13712589576389
 31
0.0
  0
LINE
  5
80
100
AcDbEntity
100
AcDbLine
  8
0
 62
92
420
42240
370
-1
  6
ByBlock
 10
309.18385156694228
 20
147.378975681513
 30
0.0
 11
314.9420017811932
 21
153.13712589576409
 31
0.0
  0
LINE
  5
81
100
AcDbEntity
100
AcDbLine
  8
0
 62
92
420
42240
370
-1
  6
ByBlock
 10
314.9420017811932
 20
147.378975681513
 30
0.0
 11
309.18385156694228
 21
153.13712589576409
 31
0.0
  0
ENDSEC
  0
SECTION
  2
OBJECTS
  0
DICTIONARY
  5
C
100
AcDbDictionary
280
0
281
1
  3
ACAD_GROUP
350
D
  3
ACAD_LAYOUT
350
1A
  3
ACAD_MLINESTYLE
350
17
  3
ACAD_PLOTSETTINGS
350
19
  3
ACAD_PLOTSTYLENAME
350
E
  3
AcDbVariableDictionary
350
82
  0
DICTIONARY
  5
D
100
AcDbDictionary
280
0
281
1
  0
ACDBDICTIONARYWDFLT
  5
E
100
AcDbDictionary
281
1
  3
Normal
350
F
100
AcDbDictionaryWithDefault
340
F
  0
ACDBPLACEHOLDER
  5
F
  0
DICTIONARY
  5
17
100
AcDbDictionary
280
0
281
1
  3
Standard
350
18
  0
MLINESTYLE
  5
18
100
AcDbMlineStyle
  2
STANDARD
 70
0
  3

 62
256
 51
90.0
 52
90.0
 71
2
 49
0.5
 62
256
  6
BYLAYER
 49
-0.5
 62
256
  6
BYLAYER
  0
DICTIONARY
  5
19
100
AcDbDictionary
280
0
281
1
  0
DICTIONARY
  5
1A
100
AcDbDictionary
281
1
  3
Layout1
350
1E
  3
Layout2
350
26
  3
Model
350
22
  0
LAYOUT
  5
1E
100
AcDbPlotSettings
  1

  2
C:\Program Files\AutoCAD 2002\plotters\DWF ePlot (optimized for plotting).pc3
  4

  6

 40
0.0
 41
0.0
 42
0.0
 43
0.0
 44
0.0
 45
0.0
 46
0.0
 47
0.0
 48
0.0
 49
0.0
140
0.0
141
0.0
142
1.0
143
1.0
 70
688
 72
0
 73
0
 74
5
  7

 75
16
147
1.0
148
0.0
149
0.0
100
AcDbLayout
  1
Layout1
 70
1
 71
1
 10
0.0
 20
0.0
 11
420.0
 21
297.0
 12
0.0
 22
0.0
 32
0.0
 14
100000000000000000000.0
 24
100000000000000000000.0
 34
100000000000000000000.0
 15
-100000000000000000000.0
 25
-100000000000000000000.0
 35
-100000000000000000000.0
146
0.0
 13
0.0
 23
0.0
 33
0.0
 16
1.0
 26
0.0
 36
0.0
 17
0.0
 27
1.0
 37
0.0
 76
0
330
1B
  0
LAYOUT
  5
22
100
AcDbPlotSettings
  1

  2
C:\Program Files\AutoCAD 2002\plotters\DWF ePlot (optimized for plotting).pc3
  4

  6

 40
0.0
 41
0.0
 42
0.0
 43
0.0
 44
0.0
 45
0.0
 46
0.0
 47
0.0
 48
0.0
 49
0.0
140
0.0
141
0.0
142
1.0
143
1.0
 70
1712
 72
0
 73
0
 74
0
  7

 75
0
147
1.0
148
0.0
149
0.0
100
AcDbLayout
  1
Model
 70
1
 71
0
 10
0.0
 20
0.0
 11
12.0
 21
9.0
 12
0.0
 22
0.0
 32
0.0
 14
0.0
 24
0.0
 34
0.0
 15
0.0
 25
0.0
 35
0.0
146
0.0
 13
0.0
 23
0.0
 33
0.0
 16
1.0
 26
0.0
 36
0.0
 17
0.0
 27
1.0
 37
0.0
 76
0
330
1F
  0
LAYOUT
  5
26
100
AcDbPlotSettings
  1

  2
C:\Program Files\AutoCAD 2002\plotters\DWF ePlot (optimized for plotting).pc3
  4

  6

 40
0.0
 41
0.0
 42
0.0
 43
0.0
 44
0.0
 45
0.0
 46
0.0
 47
0.0
 48
0.0
 49
0.0
140
0.0
141
0.0
142
1.0
143
1.0
 70
688
 72
0
 73
0
 74
5
  7

 75
16
147
1.0
148
0.0
149
0.0
100
AcDbLayout
  1
Layout2
 70
1
 71
2
 10
0.0
 20
0.0
 11
12.0
 21
9.0
 12
0.0
 22
0.0
 32
0.0
 14
0.0
 24
0.0
 34
0.0
 15
0.0
 25
0.0
 35
0.0
146
0.0
 13
0.0
 23
0.0
 33
0.0
 16
1.0
 26
0.0
 36
0.0
 17
0.0
 27
1.0
 37
0.0
 76
0
330
23
  0
DICTIONARY
  5
82
100
AcDbDictionary
281
1
  3
DIMASSOC
350
84
  3
HIDETEXT
350
83
  0
DICTIONARYVAR
  5
83
100
DictionaryVariables
280
0
  1
2
  0
DICTIONARYVAR
  5
84
100
DictionaryVariables
280
0
  1
1
  0
ENDSEC
  0
EOF
